  0
SECTION
  2
HEADER
  9
$ACADVER
  1
AC1014
  9
$ACADMAINTVER
 70
     9
  9
$DWGCODEPAGE
  3
ANSI_1252
  9
$INSBASE
 10
0.0
 20
0.0
 30
0.0
  9
$EXTMIN
 10
1.000000000000000E+20
 20
1.000000000000000E+20
 30
1.000000000000000E+20
  9
$EXTMAX
 10
-1.000000000000000E+20
 20
-1.000000000000000E+20
 30
-1.000000000000000E+20
  9
$LIMMIN
 10
0.0
 20
0.0
  9
$LIMMAX
 10
12.0
 20
9.0
  9
$ORTHOMODE
 70
     0
  9
$REGENMODE
 70
     1
  9
$FILLMODE
 70
     1
  9
$QTEXTMODE
 70
     0
  9
$MIRRTEXT
 70
     1
  9
$DRAGMODE
 70
     2
  9
$LTSCALE
 40
1.0
  9
$OSMODE
 70
    37
  9
$ATTMODE
 70
     1
  9
$TEXTSIZE
 40
0.2
  9
$TRACEWID
 40
0.05
  9
$TEXTSTYLE
  7
STANDARD
  9
$CLAYER
  8
0
  9
$CELTYPE
  6
BYLAYER
  9
$CECOLOR
 62
   256
  9
$CELTSCALE
 40
1.0
  9
$DELOBJ
 70
     1
  9
$DISPSILH
 70
     0
  9
$DIMSCALE
 40
1.0
  9
$DIMASZ
 40
0.18
  9
$DIMEXO
 40
0.0625
  9
$DIMDLI
 40
0.38
  9
$DIMRND
 40
0.0
  9
$DIMDLE
 40
0.0
  9
$DIMEXE
 40
0.18
  9
$DIMTP
 40
0.0
  9
$DIMTM
 40
0.0
  9
$DIMTXT
 40
0.18
  9
$DIMCEN
 40
0.09
  9
$DIMTSZ
 40
0.0
  9
$DIMTOL
 70
     0
  9
$DIMLIM
 70
     0
  9
$DIMTIH
 70
     1
  9
$DIMTOH
 70
     1
  9
$DIMSE1
 70
     0
  9
$DIMSE2
 70
     0
  9
$DIMTAD
 70
     0
  9
$DIMZIN
 70
     0
  9
$DIMBLK
  1

  9
$DIMASO
 70
     1
  9
$DIMSHO
 70
     1
  9
$DIMPOST
  1

  9
$DIMAPOST
  1

  9
$DIMALT
 70
     0
  9
$DIMALTD
 70
     2
  9
$DIMALTF
 40
25.4
  9
$DIMLFAC
 40
1.0
  9
$DIMTOFL
 70
     0
  9
$DIMTVP
 40
0.0
  9
$DIMTIX
 70
     0
  9
$DIMSOXD
 70
     0
  9
$DIMSAH
 70
     0
  9
$DIMBLK1
  1

  9
$DIMBLK2
  1

  9
$DIMSTYLE
  2
STANDARD
  9
$DIMCLRD
 70
     0
  9
$DIMCLRE
 70
     0
  9
$DIMCLRT
 70
     0
  9
$DIMTFAC
 40
1.0
  9
$DIMGAP
 40
0.09
  9
$DIMJUST
 70
     0
  9
$DIMSD1
 70
     0
  9
$DIMSD2
 70
     0
  9
$DIMTOLJ
 70
     1
  9
$DIMTZIN
 70
     0
  9
$DIMALTZ
 70
     0
  9
$DIMALTTZ
 70
     0
  9
$DIMFIT
 70
     3
  9
$DIMUPT
 70
     0
  9
$DIMUNIT
 70
     2
  9
$DIMDEC
 70
     4
  9
$DIMTDEC
 70
     4
  9
$DIMALTU
 70
     2
  9
$DIMALTTD
 70
     2
  9
$DIMTXSTY
  7
STANDARD
  9
$DIMAUNIT
 70
     0
  9
$LUNITS
 70
     2
  9
$LUPREC
 70
     4
  9
$SKETCHINC
 40
0.1
  9
$FILLETRAD
 40
0.5
  9
$AUNITS
 70
     0
  9
$AUPREC
 70
     0
  9
$MENU
  1
.
  9
$ELEVATION
 40
0.0
  9
$PELEVATION
 40
0.0
  9
$THICKNESS
 40
0.0
  9
$LIMCHECK
 70
     0
  9
$CHAMFERA
 40
0.0
  9
$CHAMFERB
 40
0.0
  9
$CHAMFERC
 40
0.0
  9
$CHAMFERD
 40
0.0
  9
$SKPOLY
 70
     0
  9
$TDCREATE
 40
2459004.521525162
  9
$TDUPDATE
 40
2459004.521526262
  9
$TDINDWG
 40
0.0000000116
  9
$TDUSRTIMER
 40
0.0000000116
  9
$USRTIMER
 70
     1
  9
$ANGBASE
 50
0.0
  9
$ANGDIR
 70
     0
  9
$PDMODE
 70
     0
  9
$PDSIZE
 40
0.0
  9
$PLINEWID
 40
0.0
  9
$COORDS
 70
     1
  9
$SPLFRAME
 70
     0
  9
$SPLINETYPE
 70
     6
  9
$SPLINESEGS
 70
     8
  9
$ATTDIA
 70
     0
  9
$ATTREQ
 70
     1
  9
$HANDLING
 70
     1
  9
$HANDSEED
  5
315
  9
$SURFTAB1
 70
     6
  9
$SURFTAB2
 70
     6
  9
$SURFTYPE
 70
     6
  9
$SURFU
 70
     6
  9
$SURFV
 70
     6
  9
$UCSNAME
  2

  9
$UCSORG
 10
0.0
 20
0.0
 30
0.0
  9
$UCSXDIR
 10
1.0
 20
0.0
 30
0.0
  9
$UCSYDIR
 10
0.0
 20
1.0
 30
0.0
  9
$PUCSNAME
  2

  9
$PUCSORG
 10
0.0
 20
0.0
 30
0.0
  9
$PUCSXDIR
 10
1.0
 20
0.0
 30
0.0
  9
$PUCSYDIR
 10
0.0
 20
1.0
 30
0.0
  9
$USERI1
 70
     0
  9
$USERI2
 70
     0
  9
$USERI3
 70
     0
  9
$USERI4
 70
     0
  9
$USERI5
 70
     0
  9
$USERR1
 40
0.0
  9
$USERR2
 40
0.0
  9
$USERR3
 40
0.0
  9
$USERR4
 40
0.0
  9
$USERR5
 40
0.0
  9
$WORLDVIEW
 70
     1
  9
$SHADEDGE
 70
     3
  9
$SHADEDIF
 70
    70
  9
$TILEMODE
 70
     1
  9
$MAXACTVP
 70
    64
  9
$PINSBASE
 10
0.0
 20
0.0
 30
0.0
  9
$PLIMCHECK
 70
     0
  9
$PEXTMIN
 10
1.000000000000000E+20
 20
1.000000000000000E+20
 30
1.000000000000000E+20
  9
$PEXTMAX
 10
-1.000000000000000E+20
 20
-1.000000000000000E+20
 30
-1.000000000000000E+20
  9
$PLIMMIN
 10
0.0
 20
0.0
  9
$PLIMMAX
 10
12.0
 20
9.0
  9
$UNITMODE
 70
     0
  9
$VISRETAIN
 70
     1
  9
$PLINEGEN
 70
     0
  9
$PSLTSCALE
 70
     1
  9
$TREEDEPTH
 70
  3020
  9
$PICKSTYLE
 70
     1
  9
$CMLSTYLE
  2
STANDARD
  9
$CMLJUST
 70
     0
  9
$CMLSCALE
 40
1.0
  9
$PROXYGRAPHICS
 70
     1
  9
$MEASUREMENT
 70
     0
  0
ENDSEC
  0
SECTION
  2
CLASSES
  0
CLASS
  1
ACDBDICTIONARYWDFLT
  2
AcDbDictionaryWithDefault
  3
ObjectDBX Classes
 90
        0
280
     0
281
     0
  0
CLASS
  1
VISUALSTYLE
  2
AcDbVisualStyle
  3
ObjectDBX Classes
 90
     4095
280
     0
281
     0
  0
CLASS
  1
MATERIAL
  2
AcDbMaterial
  3
ObjectDBX Classes
 90
     1153
280
     0
281
     0
  0
CLASS
  1
SCALE
  2
AcDbScale
  3
ObjectDBX Classes
 90
     1153
280
     0
281
     0
  0
CLASS
  1
TABLESTYLE
  2
AcDbTableStyle
  3
ObjectDBX Classes
 90
     4095
280
     0
281
     0
  0
CLASS
  1
MLEADERSTYLE
  2
AcDbMLeaderStyle
  3
ACDB_MLEADERSTYLE_CLASS
 90
     4095
280
     0
281
     0
  0
CLASS
  1
SUN
  2
AcDbSun
  3
SCENEOE
 90
     1153
280
     0
281
     0
  0
CLASS
  1
DICTIONARYVAR
  2
AcDbDictionaryVar
  3
ObjectDBX Classes
 90
        0
280
     0
281
     0
  0
CLASS
  1
XRECORD
  2
AcDbXrecord
  3
ObjectDBX Classes
 90
        0
280
     0
281
     0
  0
CLASS
  1
LWPOLYLINE
  2
AcDbPolyline
  3
ObjectDBX Classes
 90
        0
280
     0
281
     1
  0
CLASS
  1
HATCH
  2
AcDbHatch
  3
ObjectDBX Classes
 90
        0
280
     0
281
     1
  0
CLASS
  1
ACDBPLACEHOLDER
  2
AcDbPlaceHolder
  3
ObjectDBX Classes
 90
        0
280
     0
281
     0
  0
CLASS
  1
LAYOUT
  2
AcDbLayout
  3
ObjectDBX Classes
 90
        0
280
     0
281
     0
  0
ENDSEC
  0
SECTION
  2
TABLES
  0
TABLE
  2
VPORT
  5
8
102
{ACAD_XDICTIONARY
360
30A
102
}
330
0
100
AcDbSymbolTable
 70
     1
  0
VPORT
  5
29
330
8
100
AcDbSymbolTableRecord
100
AcDbViewportTableRecord
  2
*ACTIVE
 70
     0
 10
0.0
 20
0.0
 11
1.0
 21
1.0
 12
0.0
 22
0.0
 13
0.0
 23
0.0
 14
0.5
 24
0.5
 15
0.5
 25
0.5
 16
0.0
 26
0.0
 36
1.0
 17
0.0
 27
0.0
 37
-1000.0
 40
97.16999294744868
 41
1.764182424916574
 42
50.0
 43
154.0919222888991
 44
636.1073096566564
 50
0.0
 51
0.0
 71
     0
 72
   100
 73
     1
 74
     3
 75
     0
 76
     0
 77
     0
 78
     0
  0
ENDTAB
  0
TABLE
  2
LTYPE
  5
5
330
0
100
AcDbSymbolTable
 70
     1
  0
LTYPE
  5
14
330
5
100
AcDbSymbolTableRecord
100
AcDbLinetypeTableRecord
  2
BYBLOCK
 70
     0
  3

 72
    65
 73
     0
 40
0.0
  0
LTYPE
  5
15
330
5
100
AcDbSymbolTableRecord
100
AcDbLinetypeTableRecord
  2
BYLAYER
 70
     0
  3

 72
    65
 73
     0
 40
0.0
  0
LTYPE
  5
16
330
5
100
AcDbSymbolTableRecord
100
AcDbLinetypeTableRecord
  2
CONTINUOUS
 70
     0
  3
Solid line
 72
    65
 73
     0
 40
0.0
  0
ENDTAB
  0
TABLE
  2
LAYER
  5
2
330
0
100
AcDbSymbolTable
 70
     3
  0
LAYER
  5
10
330
2
100
AcDbSymbolTableRecord
100
AcDbLayerTableRecord
  2
0
 70
     0
 62
     7
  6
CONTINUOUS
  0
LAYER
  5
6E
330
2
100
AcDbSymbolTableRecord
100
AcDbLayerTableRecord
  2
PROFILEEDGES
 70
     0
 62
     7
  6
CONTINUOUS
  0
LAYER
  5
6F
330
2
100
AcDbSymbolTableRecord
100
AcDbLayerTableRecord
  2
SECTIONCUTEDGES
 70
     0
 62
     7
  6
CONTINUOUS
  0
ENDTAB
  0
TABLE
  2
STYLE
  5
3
330
0
100
AcDbSymbolTable
 70
     1
  0
STYLE
  5
11
330
3
100
AcDbSymbolTableRecord
100
AcDbTextStyleTableRecord
  2
STANDARD
 70
     0
 40
0.0
 41
1.0
 50
0.0
 71
     0
 42
0.2
  3
txt
  4

  0
ENDTAB
  0
TABLE
  2
VIEW
  5
6
330
0
100
AcDbSymbolTable
 70
     0
  0
ENDTAB
  0
TABLE
  2
UCS
  5
7
330
0
100
AcDbSymbolTable
 70
     0
  0
ENDTAB
  0
TABLE
  2
APPID
  5
9
330
0
100
AcDbSymbolTable
 70
     2
  0
APPID
  5
12
330
9
100
AcDbSymbolTableRecord
100
AcDbRegAppTableRecord
  2
ACAD
 70
     0
  0
APPID
  5
314
330
9
100
AcDbSymbolTableRecord
100
AcDbRegAppTableRecord
  2
ACAD_MLEADERVER
 70
     0
  0
ENDTAB
  0
TABLE
  2
DIMSTYLE
  5
A
330
0
100
AcDbSymbolTable
 70
     1
  0
DIMSTYLE
105
27
330
A
100
AcDbSymbolTableRecord
100
AcDbDimStyleTableRecord
  2
STANDARD
 70
     0
  3

  4

  5

  6

  7

 40
1.0
 41
0.18
 42
0.0625
 43
0.38
 44
0.18
 45
0.0
 46
0.0
 47
0.0
 48
0.0
140
0.18
141
0.09
142
0.0
143
25.4
144
1.0
145
0.0
146
1.0
147
0.09
 71
     0
 72
     0
 73
     1
 74
     1
 75
     0
 76
     0
 77
     0
 78
     0
170
     0
171
     2
172
     0
173
     0
174
     0
175
     0
176
     0
177
     0
178
     0
270
     2
271
     4
272
     4
273
     2
274
     2
340
11
275
     0
280
     0
281
     0
282
     0
283
     1
284
     0
285
     0
286
     0
287
     3
288
     0
  0
ENDTAB
  0
TABLE
  2
BLOCK_RECORD
  5
1
330
0
100
AcDbSymbolTable
 70
     1
  0
BLOCK_RECORD
  5
1F
330
1
100
AcDbSymbolTableRecord
100
AcDbBlockTableRecord
  2
*MODEL_SPACE
  0
BLOCK_RECORD
  5
1B
330
1
100
AcDbSymbolTableRecord
100
AcDbBlockTableRecord
  2
*PAPER_SPACE
  0
ENDTAB
  0
ENDSEC
  0
SECTION
  2
BLOCKS
  0
BLOCK
  5
20
330
1F
100
AcDbEntity
  8
0
100
AcDbBlockBegin
  2
*MODEL_SPACE
 70
     0
 10
0.0
 20
0.0
 30
0.0
  3
*MODEL_SPACE
  1

  0
ENDBLK
  5
21
330
1F
100
AcDbEntity
  8
0
100
AcDbBlockEnd
  0
BLOCK
  5
1C
330
1B
100
AcDbEntity
 67
     1
  8
0
100
AcDbBlockBegin
  2
*PAPER_SPACE
 70
     0
 10
0.0
 20
0.0
 30
0.0
  3
*PAPER_SPACE
  1

  0
ENDBLK
  5
1D
330
1B
100
AcDbEntity
 67
     1
  8
0
100
AcDbBlockEnd
  0
ENDSEC
  0
SECTION
  2
ENTITIES
  0
LINE
  5
70
330
1F
100
AcDbEntity
  8
0
100
AcDbLine
 10
30.04822366231839
 20
29.99773645149372
 30
0.0
 11
29.90065450801359
 21
33.96821824641437
 31
0.0
  0
LINE
  5
71
330
1F
100
AcDbEntity
  8
0
100
AcDbLine
 10
64.09967501376919
 20
-0.2173621455182193
 30
0.0
 11
64.79583719760384
 21
4.513745403369264
 31
0.0
  0
LINE
  5
72
330
1F
100
AcDbEntity
  8
0
100
AcDbLine
 10
64.14044055773341
 20
4.657227045614559
 30
0.0
 11
64.79583719760384
 21
4.513745403369264
 31
0.0
  0
LINE
  5
73
330
1F
100
AcDbEntity
  8
0
100
AcDbLine
 10
61.03678886492408
 20
-6.569923791123854
 30
0.0
 11
63.08303508669457
 21
-7.126431533614923
 31
0.0
  0
LINE
  5
74
330
1F
100
AcDbEntity
  8
0
100
AcDbLine
 10
-8.707638474177884
 20
14.67840666851512
 30
0.0
 11
-8.752580120355182
 21
17.00359951967286
 31
0.0
  0
LINE
  5
75
330
1F
100
AcDbEntity
  8
0
100
AcDbLine
 10
-8.752580120355182
 20
17.00359951967286
 30
0.0
 11
-6.993316391625116
 21
17.38648885210124
 31
0.0
  0
LINE
  5
76
330
1F
100
AcDbEntity
  8
0
100
AcDbLine
 10
-10.04557470008391
 20
17.60609575735218
 30
0.0
 11
-10.11886505071125
 21
20.91432461450587
 31
0.0
  0
LINE
  5
77
330
1F
100
AcDbEntity
  8
0
100
AcDbLine
 10
-10.41490380805602
 20
20.97913441743751
 30
0.0
 11
-10.11886505071125
 21
20.91432461450587
 31
0.0
  0
LINE
  5
78
330
1F
100
AcDbEntity
  8
0
100
AcDbLine
 10
-10.22869809056645
 20
12.81180790918549
 30
0.0
 11
-8.66333212530521
 21
12.38608285702335
 31
0.0
  0
LINE
  5
79
330
1F
100
AcDbEntity
  8
0
100
AcDbLine
 10
-65.45898357900269
 20
4.661915546932069
 30
0.0
 11
-62.36062225507929
 21
5.336248496316028
 31
0.0
  0
LINE
  5
7A
330
1F
100
AcDbEntity
  8
0
100
AcDbLine
 10
-65.01293892550683
 20
1.660302627374548
 30
0.0
 11
-65.45898357900269
 21
4.661915546932069
 31
0.0
  0
LINE
  5
7B
330
1F
100
AcDbEntity
  8
0
100
AcDbLine
 10
47.03915575301728
 20
7.310536256852044
 30
0.0
 11
50.84746773338524
 21
6.457075562373399
 31
0.0
  0
LINE
  5
7C
330
1F
100
AcDbEntity
  8
0
100
AcDbLine
 10
37.83860292671044
 20
-3.281247760926698
 30
0.0
 11
37.77342547120104
 21
0.8807309451568299
 31
0.0
  0
LINE
  5
7D
330
1F
100
AcDbEntity
  8
0
100
AcDbLine
 10
-27.72842746683401
 20
24.06630464669352
 30
0.0
 11
-26.15530050527073
 21
23.71375946761152
 31
0.0
  0
LINE
  5
7E
330
1F
100
AcDbEntity
  8
0
100
AcDbLine
 10
-39.49793247599091
 20
20.72885088207867
 30
0.0
 11
-39.694711281233
 21
21.51668584272508
 31
0.0
  0
LINE
  5
7F
330
1F
100
AcDbEntity
  8
0
100
AcDbLine
 10
16.79478278972858
 20
-34.72698866080847
 30
0.0
 11
17.52948801970877
 21
-35.09063067974328
 31
0.0
  0
LINE
  5
80
330
1F
100
AcDbEntity
  8
0
100
AcDbLine
 10
17.52948801970877
 20
-35.09063067974328
 30
0.0
 11
21.88182637523085
 21
-32.41883749652137
 31
0.0
  0
LINE
  5
81
330
1F
100
AcDbEntity
  8
0
100
AcDbLine
 10
35.71726778804771
 20
-23.92560120970324
 30
0.0
 11
38.13862034267929
 21
-22.43919258951092
 31
0.0
  0
LINE
  5
82
330
1F
100
AcDbEntity
  8
0
100
AcDbLine
 10
31.99794760744667
 20
-22.46135275128783
 30
0.0
 11
35.71726778804771
 21
-23.92560120970324
 31
0.0
  0
LINE
  5
83
330
1F
100
AcDbEntity
  8
0
100
AcDbLine
 10
46.1150803885639
 20
-17.54264047522104
 30
0.0
 11
48.16139520451264
 21
-16.28645827398178
 31
0.0
  0
LINE
  5
84
330
1F
100
AcDbEntity
  8
0
100
AcDbLine
 10
42.514700804607
 20
-16.30521461552561
 30
0.0
 11
46.1150803885639
 21
-17.54264047522104
 31
0.0
  0
LINE
  5
85
330
1F
100
AcDbEntity
  8
0
100
AcDbLine
 10
56.82924482903933
 20
-10.37322476601991
 30
0.0
 11
57.48129031824309
 21
-10.56520450206037
 31
0.0
  0
LINE
  5
86
330
1F
100
AcDbEntity
  8
0
100
AcDbLine
 10
57.48129031824309
 20
-10.56520450206037
 30
0.0
 11
59.79539293847363
 21
-9.144633971701005
 31
0.0
  0
LINE
  5
87
330
1F
100
AcDbEntity
  8
0
100
AcDbLine
 10
-55.17135192131352
 20
1.840890288473152
 30
0.0
 11
-52.53480184588021
 21
2.475740417085516
 31
0.0
  0
LINE
  5
88
330
1F
100
AcDbEntity
  8
0
100
AcDbLine
 10
-39.66147397494892
 20
5.750038709505565
 30
0.0
 11
-38.17993077748403
 21
5.166774231690949
 31
0.0
  0
LINE
  5
89
330
1F
100
AcDbEntity
  8
0
100
AcDbLine
 10
-38.17993077748403
 20
5.166774231690949
 30
0.0
 11
-36.19286119039356
 21
5.65278106392323
 31
0.0
  0
LINE
  5
8A
330
1F
100
AcDbEntity
  8
0
100
AcDbLine
 10
-61.1973800289858
 20
-2.893179497826281
 30
0.0
 11
-58.03353408528559
 21
-2.085122996840705
 31
0.0
  0
LINE
  5
8B
330
1F
100
AcDbEntity
  8
0
100
AcDbLine
 10
43.99780687204829
 20
-8.564025056701134
 30
0.0
 11
47.66571914608323
 21
-9.678768153341819
 31
0.0
  0
LINE
  5
8C
330
1F
100
AcDbEntity
  8
0
100
AcDbLine
 10
30.04822366231839
 20
29.99773645149372
 30
0.0
 11
29.28014930986908
 21
29.85676747170253
 31
0.0
  0
LINE
  5
8D
330
1F
100
AcDbEntity
  8
0
100
AcDbLine
 10
29.28014930986908
 20
29.85676747170253
 30
0.0
 11
29.54105196404854
 21
34.00636863266188
 31
0.0
  0
LINE
  5
8E
330
1F
100
AcDbEntity
  8
0
100
AcDbLine
 10
-47.83130480081964
 20
39.70898080873118
 30
0.0
 11
-48.12434067339529
 21
42.62239198258599
 31
0.0
  0
LINE
  5
8F
330
1F
100
AcDbEntity
  8
0
100
AcDbLine
 10
44.50905485765388
 20
34.93168140926122
 30
0.0
 11
52.19260904350641
 21
34.20939378296966
 31
0.0
  0
LINE
  5
90
330
1F
100
AcDbEntity
  8
0
100
AcDbLine
 10
65.85353485045712
 20
38.53455554976604
 30
0.0
 11
66.2578505917001
 21
38.50643916561199
 31
0.0
  0
LINE
  5
91
330
1F
100
AcDbEntity
  8
0
100
AcDbLine
 10
66.74761909789109
 20
42.01272338694027
 30
0.0
 11
66.2578505917001
 21
38.50643916561199
 31
0.0
  0
LINE
  5
92
330
1F
100
AcDbEntity
  8
0
100
AcDbLine
 10
71.61215230110292
 20
42.63993568638657
 30
0.0
 11
66.74761909789109
 21
42.01272338694027
 31
0.0
  0
LINE
  5
93
330
1F
100
AcDbEntity
  8
0
100
AcDbLine
 10
-28.7969481447261
 20
47.1874511796161
 30
0.0
 11
66.74761909789109
 21
42.01272338694027
 31
0.0
  0
LINE
  5
94
330
1F
100
AcDbEntity
  8
0
100
AcDbLine
 10
66.2578505917001
 20
38.50643916561199
 30
0.0
 11
71.11294134718585
 21
39.30444994047019
 31
0.0
  0
LINE
  5
95
330
1F
100
AcDbEntity
  8
0
100
AcDbLine
 10
-23.0192664657379
 20
47.406621326685
 30
0.0
 11
71.61215230110292
 21
42.63993568638657
 31
0.0
  0
LINE
  5
96
330
1F
100
AcDbEntity
  8
0
100
AcDbLine
 10
71.11294134718585
 20
39.30444994047019
 30
0.0
 11
71.61215230110292
 21
42.63993568638657
 31
0.0
  0
LINE
  5
97
330
1F
100
AcDbEntity
  8
0
100
AcDbLine
 10
-28.7969481447261
 20
47.1874511796161
 30
0.0
 11
-28.79426096853658
 21
47.14237786580384
 31
0.0
  0
LINE
  5
98
330
1F
100
AcDbEntity
  8
0
100
AcDbLine
 10
-23.0192664657379
 20
47.406621326685
 30
0.0
 11
-28.7969481447261
 21
47.1874511796161
 31
0.0
  0
LINE
  5
99
330
1F
100
AcDbEntity
  8
0
100
AcDbLine
 10
59.94264517117399
 20
37.57779940663175
 30
0.0
 11
60.39827188779267
 21
37.54332494646701
 31
0.0
  0
LINE
  5
9A
330
1F
100
AcDbEntity
  8
0
100
AcDbLine
 10
60.87185747400478
 20
41.25512757966266
 30
0.0
 11
60.39827188779267
 21
37.54332494646701
 31
0.0
  0
LINE
  5
9B
330
1F
100
AcDbEntity
  8
0
100
AcDbLine
 10
66.3288877271042
 20
41.95873393822029
 30
0.0
 11
60.87185747400478
 21
41.25512757966266
 31
0.0
  0
LINE
  5
9C
330
1F
100
AcDbEntity
  8
0
100
AcDbLine
 10
-35.46183924040231
 20
46.93462569652489
 30
0.0
 11
60.87185747400478
 21
41.25512757966266
 31
0.0
  0
LINE
  5
9D
330
1F
100
AcDbEntity
  8
0
100
AcDbLine
 10
60.39827188779267
 20
37.54332494646701
 30
0.0
 11
65.84009956288767
 21
38.4377751922715
 31
0.0
  0
LINE
  5
9E
330
1F
100
AcDbEntity
  8
0
100
AcDbLine
 10
-35.46183924040231
 20
46.93462569652489
 30
0.0
 11
-35.4581040579226
 21
46.8837754574278
 31
0.0
  0
LINE
  5
9F
330
1F
100
AcDbEntity
  8
0
100
AcDbLine
 10
-29.28302270277128
 20
47.16901246348528
 30
0.0
 11
-35.46183924040231
 21
46.93462569652489
 31
0.0
  0
LINE
  5
A0
330
1F
100
AcDbEntity
  8
0
100
AcDbLine
 10
53.26930708272597
 20
36.49954739380259
 30
0.0
 11
53.78674377313678
 21
36.45661597654475
 31
0.0
  0
LINE
  5
A1
330
1F
100
AcDbEntity
  8
0
100
AcDbLine
 10
54.23577483269737
 20
40.39949920199597
 30
0.0
 11
53.78674377313678
 21
36.45661597654475
 31
0.0
  0
LINE
  5
A2
330
1F
100
AcDbEntity
  8
0
100
AcDbLine
 10
60.40056478113728
 20
41.19436109678404
 30
0.0
 11
54.23577483269737
 21
40.39949920199597
 31
0.0
  0
LINE
  5
A3
330
1F
100
AcDbEntity
  8
0
100
AcDbLine
 10
-42.60547669430205
 20
46.6636394846898
 30
0.0
 11
54.23577483269737
 21
40.39949920199597
 31
0.0
  0
LINE
  5
A4
330
1F
100
AcDbEntity
  8
0
100
AcDbLine
 10
-42.60547669430205
 20
46.6636394846898
 30
0.0
 11
-42.60036287587159
 21
46.60572616448243
 31
0.0
  0
LINE
  5
A5
330
1F
100
AcDbEntity
  8
0
100
AcDbLine
 10
-35.98224843631893
 20
46.91488453279484
 30
0.0
 11
-42.60547669430205
 21
46.6636394846898
 31
0.0
  0
LINE
  5
A6
330
1F
100
AcDbEntity
  8
0
100
AcDbLine
 10
45.67574467548178
 20
35.27533556170808
 30
0.0
 11
46.26859755270874
 21
35.22089001527765
 31
0.0
  0
LINE
  5
A7
330
1F
100
AcDbEntity
  8
0
100
AcDbLine
 10
46.6815845995583
 20
39.42549392160151
 30
0.0
 11
46.26859755270874
 21
35.22089001527765
 31
0.0
  0
LINE
  5
A8
330
1F
100
AcDbEntity
  8
0
100
AcDbLine
 10
53.70136533221083
 20
40.33059470537844
 30
0.0
 11
46.6815845995583
 21
39.42549392160151
 31
0.0
  0
LINE
  5
A9
330
1F
100
AcDbEntity
  8
0
100
AcDbLine
 10
-50.28136547174165
 20
46.37246289073618
 30
0.0
 11
46.6815845995583
 21
39.42549392160151
 31
0.0
  0
LINE
  5
AA
330
1F
100
AcDbEntity
  8
0
100
AcDbLine
 10
-50.28136547174165
 20
46.37246289073618
 30
0.0
 11
-50.27440971797306
 21
46.30575556025622
 31
0.0
  0
LINE
  5
AB
330
1F
100
AcDbEntity
  8
0
100
AcDbLine
 10
-43.16399122056446
 20
46.64245283619265
 30
0.0
 11
-50.28136547174165
 21
46.37246289073618
 31
0.0
  0
LINE
  5
AC
330
1F
100
AcDbEntity
  8
0
100
AcDbLine
 10
38.00459575615027
 20
38.30671974586951
 30
0.0
 11
37.64362362496391
 21
33.80323945551518
 31
0.0
  0
LINE
  5
AD
330
1F
100
AcDbEntity
  8
0
100
AcDbLine
 10
46.07047494463603
 20
39.34670003206142
 30
0.0
 11
38.00459575615027
 21
38.30671974586951
 31
0.0
  0
LINE
  5
AE
330
1F
100
AcDbEntity
  8
0
100
AcDbLine
 10
-58.5512920472433
 20
46.05875211113521
 30
0.0
 11
38.00459575615027
 21
38.30671974586951
 31
0.0
  0
LINE
  5
AF
330
1F
100
AcDbEntity
  8
0
100
AcDbLine
 10
-58.5512920472433
 20
46.05875211113521
 30
0.0
 11
-58.26040311769253
 21
43.66463988308654
 31
0.0
  0
LINE
  5
B0
330
1F
100
AcDbEntity
  8
0
100
AcDbLine
 10
-50.88232907186619
 20
46.3496659822285
 30
0.0
 11
-58.5512920472433
 21
46.05875211113521
 31
0.0
  0
LINE
  5
B1
330
1F
100
AcDbEntity
  8
0
100
AcDbLine
 10
74.97786707977855
 20
17.55587829347555
 30
0.0
 11
75.22181167618844
 21
17.51809839167591
 31
0.0
  0
LINE
  5
B2
330
1F
100
AcDbEntity
  8
0
100
AcDbLine
 10
75.68164824038003
 20
20.28949675973366
 30
0.0
 11
75.22181167618844
 21
17.51809839167591
 31
0.0
  0
LINE
  5
B3
330
1F
100
AcDbEntity
  8
0
100
AcDbLine
 10
79.36496980135419
 20
21.72451449123975
 30
0.0
 11
75.68164824038003
 21
20.28949675973366
 31
0.0
  0
LINE
  5
B4
330
1F
100
AcDbEntity
  8
0
100
AcDbLine
 10
-12.7506738707463
 20
32.93382051010344
 30
0.0
 11
30.16717304433498
 21
26.79729555963151
 31
0.0
  0
LINE
  5
B5
330
1F
100
AcDbEntity
  8
0
100
AcDbLine
 10
37.3837255623273
 20
25.76545081982726
 30
0.0
 11
50.22314707421681
 21
23.92963108233597
 31
0.0
  0
LINE
  5
B6
330
1F
100
AcDbEntity
  8
0
100
AcDbLine
 10
56.03083310912619
 20
23.09923037914493
 30
0.0
 11
75.68164824038003
 21
20.28949675973366
 31
0.0
  0
LINE
  5
B7
330
1F
100
AcDbEntity
  8
0
100
AcDbLine
 10
75.22181167618844
 20
17.51809839167591
 30
0.0
 11
78.9028751577752
 21
19.06040358000391
 31
0.0
  0
LINE
  5
B8
330
1F
100
AcDbEntity
  8
0
100
AcDbLine
 10
-8.017059462034455
 20
33.51268469763055
 30
0.0
 11
30.1087445249011
 21
28.36936781151432
 31
0.0
  0
LINE
  5
B9
330
1F
100
AcDbEntity
  8
0
100
AcDbLine
 10
37.35826317191968
 20
27.3913799981635
 30
0.0
 11
50.54553615125958
 21
25.61236639835312
 31
0.0
  0
LINE
  5
BA
330
1F
100
AcDbEntity
  8
0
100
AcDbLine
 10
56.37581731534809
 20
24.82583915364669
 30
0.0
 11
79.36496980135419
 21
21.72451449123975
 31
0.0
  0
LINE
  5
BB
330
1F
100
AcDbEntity
  8
0
100
AcDbLine
 10
78.9028751577752
 20
19.06040358000391
 30
0.0
 11
79.36496980135419
 21
21.72451449123975
 31
0.0
  0
LINE
  5
BC
330
1F
100
AcDbEntity
  8
0
100
AcDbLine
 10
-12.7506738707463
 20
32.93382051010344
 30
0.0
 11
-12.74820525871433
 21
32.84306333075804
 31
0.0
  0
LINE
  5
BD
330
1F
100
AcDbEntity
  8
0
100
AcDbLine
 10
-8.017059462034455
 20
33.51268469763055
 30
0.0
 11
-12.7506738707463
 21
32.93382051010344
 31
0.0
  0
LINE
  5
BE
330
1F
100
AcDbEntity
  8
0
100
AcDbLine
 10
71.3664865868922
 20
18.60831487415502
 30
0.0
 11
70.91168292119592
 21
15.71222517747041
 31
0.0
  0
LINE
  5
BF
330
1F
100
AcDbEntity
  8
0
100
AcDbLine
 10
75.41259172604138
 20
20.184672659404
 30
0.0
 11
71.3664865868922
 21
18.60831487415502
 31
0.0
  0
LINE
  5
C0
330
1F
100
AcDbEntity
  8
0
100
AcDbLine
 10
-18.11271001009742
 20
32.27810789278838
 30
0.0
 11
30.23800346003725
 21
24.89153905247064
 31
0.0
  0
LINE
  5
C1
330
1F
100
AcDbEntity
  8
0
100
AcDbLine
 10
37.41458058917979
 20
23.79516886064287
 30
0.0
 11
49.83388817730311
 21
21.8978634464132
 31
0.0
  0
LINE
  5
C2
330
1F
100
AcDbEntity
  8
0
100
AcDbLine
 10
55.61435026472054
 20
21.0147786256705
 30
0.0
 11
71.3664865868922
 21
18.60831487415502
 31
0.0
  0
LINE
  5
C3
330
1F
100
AcDbEntity
  8
0
100
AcDbLine
 10
70.91168292119592
 20
15.71222517747041
 30
0.0
 11
74.95299368772923
 21
17.40546806612155
 31
0.0
  0
LINE
  5
C4
330
1F
100
AcDbEntity
  8
0
100
AcDbLine
 10
37.38561655499424
 20
25.64469938588911
 30
0.0
 11
50.19924649371937
 21
23.80488010986116
 31
0.0
  0
LINE
  5
C5
330
1F
100
AcDbEntity
  8
0
100
AcDbLine
 10
56.00525914874483
 20
22.97123546344484
 30
0.0
 11
75.41259172604138
 21
20.184672659404
 31
0.0
  0
LINE
  5
C6
330
1F
100
AcDbEntity
  8
0
100
AcDbLine
 10
-18.11271001009742
 20
32.27810789278838
 30
0.0
 11
-18.041094813818
 21
30.42724125538751
 31
0.0
  0
LINE
  5
C7
330
1F
100
AcDbEntity
  8
0
100
AcDbLine
 10
-13.09069868111061
 20
32.8922395597775
 30
0.0
 11
-18.11271001009742
 21
32.27810789278838
 31
0.0
  0
LINE
  5
C8
330
1F
100
AcDbEntity
  8
0
100
AcDbLine
 10
65.84321532589551
 20
16.30947476335644
 30
0.0
 11
66.27661853591505
 21
16.47898085040474
 31
0.0
  0
LINE
  5
C9
330
1F
100
AcDbEntity
  8
0
100
AcDbLine
 10
65.77537842277181
 20
16.29187866430492
 30
0.0
 11
65.84321532589551
 21
16.30947476335644
 31
0.0
  0
LINE
  5
CA
330
1F
100
AcDbEntity
  8
0
100
AcDbLine
 10
65.68006724208858
 20
16.28080898695409
 30
0.0
 11
65.77537842277181
 21
16.29187866430492
 31
0.0
  0
LINE
  5
CB
330
1F
100
AcDbEntity
  8
0
100
AcDbLine
 10
65.56380711045908
 20
16.27703185824097
 30
0.0
 11
65.68006724208858
 21
16.28080898695409
 31
0.0
  0
LINE
  5
CC
330
1F
100
AcDbEntity
  8
0
100
AcDbLine
 10
65.43458229282822
 20
16.28080898695409
 30
0.0
 11
65.56380711045908
 21
16.27703185824097
 31
0.0
  0
LINE
  5
CD
330
1F
100
AcDbEntity
  8
0
100
AcDbLine
 10
65.30127534819574
 20
16.29187866430494
 30
0.0
 11
65.43458229282822
 21
16.28080898695409
 31
0.0
  0
LINE
  5
CE
330
1F
100
AcDbEntity
  8
0
100
AcDbLine
 10
65.17304127135141
 20
16.30947476335644
 30
0.0
 11
65.30127534819574
 21
16.29187866430494
 31
0.0
  0
LINE
  5
CF
330
1F
100
AcDbEntity
  8
0
100
AcDbLine
 10
58.68677736725771
 20
17.39615830017595
 30
0.0
 11
58.79424308395031
 21
17.37451107738823
 31
0.0
  0
LINE
  5
D0
330
1F
100
AcDbEntity
  8
0
100
AcDbLine
 10
58.60097124761296
 20
17.42133521341487
 30
0.0
 11
58.68677736725771
 21
17.39615830017595
 31
0.0
  0
LINE
  5
D1
330
1F
100
AcDbEntity
  8
0
100
AcDbLine
 10
58.54264166984021
 20
17.44831536899506
 30
0.0
 11
58.60097124761296
 21
17.42133521341487
 31
0.0
  0
LINE
  5
D2
330
1F
100
AcDbEntity
  8
0
100
AcDbLine
 10
58.51570509174989
 20
17.47525626764655
 30
0.0
 11
58.54264166984021
 21
17.44831536899506
 31
0.0
  0
LINE
  5
D3
330
1F
100
AcDbEntity
  8
0
100
AcDbLine
 10
67.93137688952507
 20
16.20524239727879
 30
0.0
 11
64.08946194924351
 21
-9.360422438285497
 31
0.0
  0
LINE
  5
D4
330
1F
100
AcDbEntity
  8
0
100
AcDbLine
 10
58.51570509174989
 20
17.47525626764655
 30
0.0
 11
58.55205033219661
 21
17.75681779048651
 31
0.0
  0
LINE
  5
D5
330
1F
100
AcDbEntity
  8
0
100
AcDbLine
 10
65.84321532589551
 20
16.30947476335644
 30
0.0
 11
65.87751371405258
 21
16.54500277821879
 31
0.0
  0
LINE
  5
D6
330
1F
100
AcDbEntity
  8
0
100
AcDbLine
 10
65.17304127135141
 20
16.30947476335644
 30
0.0
 11
65.22260653308375
 21
16.65334081940068
 31
0.0
  0
LINE
  5
D7
330
1F
100
AcDbEntity
  8
0
100
AcDbLine
 10
58.79424308395031
 20
17.37451107738823
 30
0.0
 11
58.83770860955636
 21
17.70956276089473
 31
0.0
  0
LINE
  5
D8
330
1F
100
AcDbEntity
  8
0
100
AcDbLine
 10
64.08946194924351
 20
-9.360422438285497
 30
0.0
 11
62.614887614325
 21
-10.30795459239587
 31
0.0
  0
LINE
  5
D9
330
1F
100
AcDbEntity
  8
0
100
AcDbLine
 10
-14.71530363416718
 20
29.64803571051501
 30
0.0
 11
-11.88536124880283
 21
29.17553425828475
 31
0.0
  0
LINE
  5
DA
330
1F
100
AcDbEntity
  8
0
100
AcDbLine
 10
-11.44108301561069
 20
29.17553425828474
 30
0.0
 11
-10.92547568814169
 21
29.25013973585343
 31
0.0
  0
LINE
  5
DB
330
1F
100
AcDbEntity
  8
0
100
AcDbLine
 10
-11.5096618330037
 20
29.16780240202699
 30
0.0
 11
-11.44108301561069
 21
29.17553425828474
 31
0.0
  0
LINE
  5
DC
330
1F
100
AcDbEntity
  8
0
100
AcDbLine
 10
-11.58767827039454
 20
29.16293953478791
 30
0.0
 11
-11.5096618330037
 21
29.16780240202699
 31
0.0
  0
LINE
  5
DD
330
1F
100
AcDbEntity
  8
0
100
AcDbLine
 10
-11.66979199554929
 20
29.16128047396453
 30
0.0
 11
-11.58767827039454
 21
29.16293953478791
 31
0.0
  0
LINE
  5
DE
330
1F
100
AcDbEntity
  8
0
100
AcDbLine
 10
-11.75037632996236
 20
29.16293953478792
 30
0.0
 11
-11.66979199554929
 21
29.16128047396453
 31
0.0
  0
LINE
  5
DF
330
1F
100
AcDbEntity
  8
0
100
AcDbLine
 10
-11.82390997562629
 20
29.167802402027
 30
0.0
 11
-11.75037632996236
 21
29.16293953478792
 31
0.0
  0
LINE
  5
E0
330
1F
100
AcDbEntity
  8
0
100
AcDbLine
 10
-11.88536124880283
 20
29.17553425828475
 30
0.0
 11
-11.82390997562629
 21
29.167802402027
 31
0.0
  0
LINE
  5
E1
330
1F
100
AcDbEntity
  8
0
100
AcDbLine
 10
-14.75853055017411
 20
29.65773251445885
 30
0.0
 11
-14.71530363416718
 21
29.64803571051501
 31
0.0
  0
LINE
  5
E2
330
1F
100
AcDbEntity
  8
0
100
AcDbLine
 10
-14.78259406877633
 20
29.66901514145833
 30
0.0
 11
-14.75853055017411
 21
29.65773251445885
 31
0.0
  0
LINE
  5
E3
330
1F
100
AcDbEntity
  8
0
100
AcDbLine
 10
-14.78587748249625
 20
29.68111148775124
 30
0.0
 11
-14.78259406877633
 21
29.66901514145833
 31
0.0
  0
LINE
  5
E4
330
1F
100
AcDbEntity
  8
0
100
AcDbLine
 10
-7.141711085676664
 20
27.00368216417893
 30
0.0
 11
-6.993316391625116
 21
17.38648885210124
 31
0.0
  0
LINE
  5
E5
330
1F
100
AcDbEntity
  8
0
100
AcDbLine
 10
-6.944532399475765
 20
14.22488603313829
 30
0.0
 11
-6.907951738656391
 21
11.85415917641682
 31
0.0
  0
LINE
  5
E6
330
1F
100
AcDbEntity
  8
0
100
AcDbLine
 10
-10.60225425379359
 20
29.19667081982556
 30
0.0
 11
-10.41490380805602
 21
20.97913441743751
 31
0.0
  0
LINE
  5
E7
330
1F
100
AcDbEntity
  8
0
100
AcDbLine
 10
-10.32792970303302
 20
17.16428961534495
 30
0.0
 11
-10.22869809056645
 21
12.81180790918549
 31
0.0
  0
LINE
  5
E8
330
1F
100
AcDbEntity
  8
0
100
AcDbLine
 10
-11.44108301561069
 20
29.17553425828474
 30
0.0
 11
-11.44503323298412
 21
29.33608755918656
 31
0.0
  0
LINE
  5
E9
330
1F
100
AcDbEntity
  8
0
100
AcDbLine
 10
-11.88536124880283
 20
29.17553425828475
 30
0.0
 11
-11.89135195349834
 21
29.40991984768245
 31
0.0
  0
LINE
  5
EA
330
1F
100
AcDbEntity
  8
0
100
AcDbLine
 10
-14.71530363416718
 20
29.64803571051501
 30
0.0
 11
-14.72258217759554
 21
29.87827619729508
 31
0.0
  0
LINE
  5
EB
330
1F
100
AcDbEntity
  8
0
100
AcDbLine
 10
-14.78587748249625
 20
29.68111148775124
 30
0.0
 11
-14.792507260358
 21
29.88984355632871
 31
0.0
  0
LINE
  5
EC
330
1F
100
AcDbEntity
  8
0
100
AcDbLine
 10
37.48719616202916
 20
19.15822092263148
 30
0.0
 11
48.92382907557228
 21
17.147737901862
 31
0.0
  0
LINE
  5
ED
330
1F
100
AcDbEntity
  8
0
100
AcDbLine
 10
54.64089042441135
 20
16.14271703099648
 30
0.0
 11
62.65941292886648
 21
14.73311479328065
 31
0.0
  0
LINE
  5
EE
330
1F
100
AcDbEntity
  8
0
100
AcDbLine
 10
62.65941292886648
 20
14.73311479328065
 30
0.0
 11
62.93069773299619
 21
16.6838677487937
 31
0.0
  0
LINE
  5
EF
330
1F
100
AcDbEntity
  8
0
100
AcDbLine
 10
-8.952014056883762
 20
27.32192123100693
 30
0.0
 11
-8.983072370290213
 21
28.9288176053953
 31
0.0
  0
LINE
  5
F0
330
1F
100
AcDbEntity
  8
0
100
AcDbLine
 10
-0.3445038686882914
 20
27.25858931341347
 30
0.0
 11
1.098941807020846
 21
27.01767262457668
 31
0.0
  0
LINE
  5
F1
330
1F
100
AcDbEntity
  8
0
100
AcDbLine
 10
-0.3980401291872275
 20
27.27024162948112
 30
0.0
 11
-0.3445038686882914
 21
27.25858931341347
 31
0.0
  0
LINE
  5
F2
330
1F
100
AcDbEntity
  8
0
100
AcDbLine
 10
-0.4315719987355934
 20
27.28379847247675
 30
0.0
 11
-0.3980401291872275
 21
27.27024162948112
 31
0.0
  0
LINE
  5
F3
330
1F
100
AcDbEntity
  8
0
100
AcDbLine
 10
-0.4428399616741474
 20
27.2983317378856
 30
0.0
 11
-0.4315719987355934
 21
27.28379847247675
 31
0.0
  0
LINE
  5
F4
330
1F
100
AcDbEntity
  8
0
100
AcDbLine
 10
1.581106692789334
 20
27.01767262457668
 30
0.0
 11
2.069226594460965
 21
27.10049069863201
 31
0.0
  0
LINE
  5
F5
330
1F
100
AcDbEntity
  8
0
100
AcDbLine
 10
1.510996193447298
 20
27.00856560701231
 30
0.0
 11
1.581106692789334
 21
27.01767262457668
 31
0.0
  0
LINE
  5
F6
330
1F
100
AcDbEntity
  8
0
100
AcDbLine
 10
1.429038099134867
 20
27.00283760384007
 30
0.0
 11
1.510996193447298
 21
27.00856560701231
 31
0.0
  0
LINE
  5
F7
330
1F
100
AcDbEntity
  8
0
100
AcDbLine
 10
1.340843491231645
 20
27.00088334227499
 30
0.0
 11
1.429038099134867
 21
27.00283760384007
 31
0.0
  0
LINE
  5
F8
330
1F
100
AcDbEntity
  8
0
100
AcDbLine
 10
1.252458165010833
 20
27.00283760384007
 30
0.0
 11
1.340843491231645
 21
27.00088334227499
 31
0.0
  0
LINE
  5
F9
330
1F
100
AcDbEntity
  8
0
100
AcDbLine
 10
1.169941069207714
 20
27.00856560701231
 30
0.0
 11
1.252458165010833
 21
27.00283760384007
 31
0.0
  0
LINE
  5
FA
330
1F
100
AcDbEntity
  8
0
100
AcDbLine
 10
1.098941807020846
 20
27.01767262457668
 30
0.0
 11
1.169941069207714
 21
27.00856560701231
 31
0.0
  0
LINE
  5
FB
330
1F
100
AcDbEntity
  8
0
100
AcDbLine
 10
-0.4428399616741474
 20
27.2983317378856
 30
0.0
 11
-0.4430481711569011
 21
27.51608383141015
 31
0.0
  0
LINE
  5
FC
330
1F
100
AcDbEntity
  8
0
100
AcDbLine
 10
1.098941807020846
 20
27.01767262457668
 30
0.0
 11
1.099519304256739
 21
27.26090455786793
 31
0.0
  0
LINE
  5
FD
330
1F
100
AcDbEntity
  8
0
100
AcDbLine
 10
1.581106692789334
 20
27.01767262457668
 30
0.0
 11
1.581665113726022
 21
27.18114557204541
 31
0.0
  0
LINE
  5
FE
330
1F
100
AcDbEntity
  8
0
100
AcDbLine
 10
-0.3445038686882914
 20
27.25858931341347
 30
0.0
 11
-0.3446833174906719
 21
27.49981182237281
 31
0.0
  0
LINE
  5
FF
330
1F
100
AcDbEntity
  8
0
100
AcDbLine
 10
37.45915199452251
 20
20.94901234092654
 30
0.0
 11
37.97647898750429
 21
20.86266845678013
 31
0.0
  0
LINE
  5
100
330
1F
100
AcDbEntity
  8
0
100
AcDbLine
 10
38.56671035022769
 20
20.86266845678012
 30
0.0
 11
39.02738264801022
 21
20.98668656136021
 31
0.0
  0
LINE
  5
101
330
1F
100
AcDbEntity
  8
0
100
AcDbLine
 10
38.495895102619
 20
20.8490206815476
 30
0.0
 11
38.56671035022769
 21
20.86266845678012
 31
0.0
  0
LINE
  5
102
330
1F
100
AcDbEntity
  8
0
100
AcDbLine
 10
38.40499704751499
 20
20.8404356573821
 30
0.0
 11
38.495895102619
 21
20.8490206815476
 31
0.0
  0
LINE
  5
103
330
1F
100
AcDbEntity
  8
0
100
AcDbLine
 10
38.30024053570907
 20
20.83750646298308
 30
0.0
 11
38.40499704751499
 21
20.8404356573821
 31
0.0
  0
LINE
  5
104
330
1F
100
AcDbEntity
  8
0
100
AcDbLine
 10
38.18881449577363
 20
20.8404356573821
 30
0.0
 11
38.30024053570907
 21
20.83750646298308
 31
0.0
  0
LINE
  5
105
330
1F
100
AcDbEntity
  8
0
100
AcDbLine
 10
38.07836906607976
 20
20.8490206815476
 30
0.0
 11
38.18881449577363
 21
20.8404356573821
 31
0.0
  0
LINE
  5
106
330
1F
100
AcDbEntity
  8
0
100
AcDbLine
 10
37.97647898750429
 20
20.86266845678013
 30
0.0
 11
38.07836906607976
 21
20.8490206815476
 31
0.0
  0
LINE
  5
107
330
1F
100
AcDbEntity
  8
0
100
AcDbLine
 10
37.97647898750429
 20
20.86266845678013
 30
0.0
 11
38.00091147967254
 21
21.15649058693661
 31
0.0
  0
LINE
  5
108
330
1F
100
AcDbEntity
  8
0
100
AcDbLine
 10
38.56671035022769
 20
20.86266845678012
 30
0.0
 11
38.58338567091249
 21
21.06013477537779
 31
0.0
  0
LINE
  5
109
330
1F
100
AcDbEntity
  8
0
100
AcDbLine
 10
7.445699410021178
 20
-10.87898036442179
 30
0.0
 11
6.827615485994449
 21
-46.15574665003811
 31
0.0
  0
LINE
  5
10A
330
1F
100
AcDbEntity
  8
0
100
AcDbLine
 10
10.35687597436583
 20
-43.88791401944518
 30
0.0
 11
6.827615485994449
 21
-46.15574665003811
 31
0.0
  0
LINE
  5
10B
330
1F
100
AcDbEntity
  8
0
100
AcDbLine
 10
6.827615485994449
 20
-46.15574665003811
 30
0.0
 11
2.990632691375816
 21
-43.88791401944521
 31
0.0
  0
LINE
  5
10C
330
1F
100
AcDbEntity
  8
0
100
AcDbLine
 10
7.258182602277797
 20
-6.36820466989899
 30
0.0
 11
7.180068023295064
 21
-10.99027555614552
 31
0.0
  0
LINE
  5
10D
330
1F
100
AcDbEntity
  8
0
100
AcDbLine
 10
18.55465145271836
 20
-1.967113742746458
 30
0.0
 11
7.258182602277797
 21
-6.36820466989899
 31
0.0
  0
LINE
  5
10E
330
1F
100
AcDbEntity
  8
0
100
AcDbLine
 10
-79.94485855826572
 20
24.71677878103847
 30
0.0
 11
7.258182602277797
 21
-6.36820466989899
 31
0.0
  0
LINE
  5
10F
330
1F
100
AcDbEntity
  8
0
100
AcDbLine
 10
-79.94485855826572
 20
24.71677878103847
 30
0.0
 11
-79.52168434451771
 21
22.27891331065756
 31
0.0
  0
LINE
  5
110
330
1F
100
AcDbEntity
  8
0
100
AcDbLine
 10
-71.00381791764045
 20
25.81016066202926
 30
0.0
 11
-79.94485855826572
 21
24.71677878103847
 31
0.0
  0
LINE
  5
111
330
1F
100
AcDbEntity
  8
0
100
AcDbLine
 10
-68.722747991043
 20
18.135146393696
 30
0.0
 11
-65.45794828884014
 21
-3.431666552705433
 31
0.0
  0
LINE
  5
112
330
1F
100
AcDbEntity
  8
0
100
AcDbLine
 10
-61.12126406067265
 20
-3.431666552705419
 30
0.0
 11
-64.14055686873097
 21
-4.210305240889507
 31
0.0
  0
LINE
  5
113
330
1F
100
AcDbEntity
  8
0
100
AcDbLine
 10
-64.14055686873097
 20
-4.210305240889507
 30
0.0
 11
-65.45794828884014
 21
-3.431666552705433
 31
0.0
  0
LINE
  5
114
330
1F
100
AcDbEntity
  8
0
100
AcDbLine
 10
18.39207689563416
 20
-5.768658082857616
 30
0.0
 11
19.09039981598069
 21
-6.000041997161276
 31
0.0
  0
LINE
  5
115
330
1F
100
AcDbEntity
  8
0
100
AcDbLine
 10
19.28210168094285
 20
-1.683699992682056
 30
0.0
 11
19.09039981598069
 21
-6.000041997161276
 31
0.0
  0
LINE
  5
116
330
1F
100
AcDbEntity
  8
0
100
AcDbLine
 10
28.96005129002498
 20
2.0868177489138
 30
0.0
 11
19.28210168094285
 21
-1.683699992682056
 31
0.0
  0
LINE
  5
117
330
1F
100
AcDbEntity
  8
0
100
AcDbLine
 10
-70.40447639508439
 20
25.88345293164608
 30
0.0
 11
19.28210168094285
 21
-1.683699992682056
 31
0.0
  0
LINE
  5
118
330
1F
100
AcDbEntity
  8
0
100
AcDbLine
 10
28.69128167169933
 20
-1.977430061054045
 30
0.0
 11
28.96005129002498
 21
2.0868177489138
 31
0.0
  0
LINE
  5
119
330
1F
100
AcDbEntity
  8
0
100
AcDbLine
 10
-70.40447639508439
 20
25.88345293164608
 30
0.0
 11
-70.3629936367325
 21
25.61140389428671
 31
0.0
  0
LINE
  5
11A
330
1F
100
AcDbEntity
  8
0
100
AcDbLine
 10
-62.13875216982616
 20
26.89425172615105
 30
0.0
 11
-70.40447639508439
 21
25.88345293164608
 31
0.0
  0
LINE
  5
11B
330
1F
100
AcDbEntity
  8
0
100
AcDbLine
 10
0.2379595462986598
 20
37.24166407063251
 30
0.0
 11
0.2381646795452936
 21
37.64948263597788
 31
0.0
  0
LINE
  5
11C
330
1F
100
AcDbEntity
  8
0
100
AcDbLine
 10
-3.143478436515672
 20
37.53800552579113
 30
0.0
 11
-3.146529843489434
 21
37.99751628117838
 31
0.0
  0
LINE
  5
11D
330
1F
100
AcDbEntity
  8
0
100
AcDbLine
 10
-2.984548602611944
 20
37.49629637700355
 30
0.0
 11
-2.98760594279704
 21
37.98117481695139
 31
0.0
  0
LINE
  5
11E
330
1F
100
AcDbEntity
  8
0
100
AcDbLine
 10
-0.5788543169771287
 20
37.24166407063251
 30
0.0
 11
-0.5794561889193922
 21
37.73355508898868
 31
0.0
  0
LINE
  5
11F
330
1F
100
AcDbEntity
  8
0
100
AcDbLine
 10
-0.0209792616619904
 20
37.22588309216734
 30
0.0
 11
0.1184064225005011
 21
37.2319777452468
 31
0.0
  0
LINE
  5
120
330
1F
100
AcDbEntity
  8
0
100
AcDbLine
 10
-0.5788543169771287
 20
37.24166407063251
 30
0.0
 11
-2.984548602611944
 21
37.49629637700355
 31
0.0
  0
LINE
  5
121
330
1F
100
AcDbEntity
  8
0
100
AcDbLine
 10
-3.072764419172128
 20
37.50853395519598
 30
0.0
 11
-2.984548602611944
 21
37.49629637700355
 31
0.0
  0
LINE
  5
122
330
1F
100
AcDbEntity
  8
0
100
AcDbLine
 10
2.194491519173877
 20
37.44832192366962
 30
0.0
 11
0.2379595462986598
 21
37.24166407063251
 31
0.0
  0
LINE
  5
123
330
1F
100
AcDbEntity
  8
0
100
AcDbLine
 10
-0.3202275890190812
 20
37.22588309216734
 30
0.0
 11
-0.1706239896815414
 21
37.22380333428485
 31
0.0
  0
LINE
  5
124
330
1F
100
AcDbEntity
  8
0
100
AcDbLine
 10
-0.4594927471094511
 20
37.2319777452468
 30
0.0
 11
-0.3202275890190812
 21
37.22588309216734
 31
0.0
  0
LINE
  5
125
330
1F
100
AcDbEntity
  8
0
100
AcDbLine
 10
0.1184064225005011
 20
37.2319777452468
 30
0.0
 11
0.2379595462986598
 21
37.24166407063251
 31
0.0
  0
LINE
  5
126
330
1F
100
AcDbEntity
  8
0
100
AcDbLine
 10
-0.5788543169771287
 20
37.24166407063251
 30
0.0
 11
-0.4594927471094511
 21
37.2319777452468
 31
0.0
  0
LINE
  5
127
330
1F
100
AcDbEntity
  8
0
100
AcDbLine
 10
-0.1706239896815414
 20
37.22380333428485
 30
0.0
 11
-0.0209792616619904
 21
37.22588309216734
 31
0.0
  0
LINE
  5
128
330
1F
100
AcDbEntity
  8
0
100
AcDbLine
 10
-3.143478436515672
 20
37.53800552579113
 30
0.0
 11
-3.126947237199182
 21
37.52276270867293
 31
0.0
  0
LINE
  5
129
330
1F
100
AcDbEntity
  8
0
100
AcDbLine
 10
-3.126947237199182
 20
37.52276270867293
 30
0.0
 11
-3.072764419172128
 21
37.50853395519598
 31
0.0
  0
LINE
  5
12A
330
1F
100
AcDbEntity
  8
0
100
AcDbLine
 10
-38.54054158036997
 20
41.32571696246396
 30
0.0
 11
-38.56588888061036
 21
41.63953731216406
 31
0.0
  0
LINE
  5
12B
330
1F
100
AcDbEntity
  8
0
100
AcDbLine
 10
-40.56956664688424
 20
41.47450752659048
 30
0.0
 11
-40.60138322735234
 21
41.84883848024893
 31
0.0
  0
LINE
  5
12C
330
1F
100
AcDbEntity
  8
0
100
AcDbLine
 10
-40.6337818085635
 20
41.4900327105434
 30
0.0
 11
-40.66488191474887
 21
41.85536777838489
 31
0.0
  0
LINE
  5
12D
330
1F
100
AcDbEntity
  8
0
100
AcDbLine
 10
-39.16383532010601
 20
41.32571696246396
 30
0.0
 11
-39.19490113358883
 21
41.7042159488298
 31
0.0
  0
LINE
  5
12E
330
1F
100
AcDbEntity
  8
0
100
AcDbLine
 10
-38.76517353001098
 20
41.31652984919547
 30
0.0
 11
-38.64838340640755
 21
41.32007746286693
 31
0.0
  0
LINE
  5
12F
330
1F
100
AcDbEntity
  8
0
100
AcDbLine
 10
-39.16383532010601
 20
41.32571696246396
 30
0.0
 11
-40.56956664688424
 21
41.47450752659048
 31
0.0
  0
LINE
  5
130
330
1F
100
AcDbEntity
  8
0
100
AcDbLine
 10
-40.61638813014235
 20
41.48168469656874
 30
0.0
 11
-40.56956664688424
 21
41.47450752659048
 31
0.0
  0
LINE
  5
131
330
1F
100
AcDbEntity
  8
0
100
AcDbLine
 10
-36.68753791858216
 20
41.44639452547192
 30
0.0
 11
-38.54054158036997
 21
41.32571696246396
 31
0.0
  0
LINE
  5
132
330
1F
100
AcDbEntity
  8
0
100
AcDbLine
 10
-38.99347421286998
 20
41.31652984919547
 30
0.0
 11
-38.88289914125284
 21
41.31531938673438
 31
0.0
  0
LINE
  5
133
330
1F
100
AcDbEntity
  8
0
100
AcDbLine
 10
-39.0893075922981
 20
41.32007746286693
 30
0.0
 11
-38.99347421286998
 21
41.31652984919547
 31
0.0
  0
LINE
  5
134
330
1F
100
AcDbEntity
  8
0
100
AcDbLine
 10
-38.64838340640755
 20
41.32007746286693
 30
0.0
 11
-38.54054158036997
 21
41.32571696246396
 31
0.0
  0
LINE
  5
135
330
1F
100
AcDbEntity
  8
0
100
AcDbLine
 10
-39.16383532010601
 20
41.32571696246396
 30
0.0
 11
-39.0893075922981
 21
41.32007746286693
 31
0.0
  0
LINE
  5
136
330
1F
100
AcDbEntity
  8
0
100
AcDbLine
 10
-38.88289914125284
 20
41.31531938673438
 30
0.0
 11
-38.76517353001098
 21
41.31652984919547
 31
0.0
  0
LINE
  5
137
330
1F
100
AcDbEntity
  8
0
100
AcDbLine
 10
-40.6337818085635
 20
41.4900327105434
 30
0.0
 11
-40.61638813014235
 21
41.48168469656874
 31
0.0
  0
LINE
  5
138
330
1F
100
AcDbEntity
  8
0
100
AcDbLine
 10
50.84746773338524
 20
6.457075562373399
 30
0.0
 11
37.77342547120104
 21
0.8807309451568299
 31
0.0
  0
LINE
  5
139
330
1F
100
AcDbEntity
  8
0
100
AcDbLine
 10
50.84746773338524
 20
6.457075562373399
 30
0.0
 11
50.03301889241421
 21
2.326699182290593
 31
0.0
  0
LINE
  5
13A
330
1F
100
AcDbEntity
  8
0
100
AcDbLine
 10
-26.15530050527073
 20
23.71375946761152
 30
0.0
 11
-39.694711281233
 21
21.51668584272508
 31
0.0
  0
LINE
  5
13B
330
1F
100
AcDbEntity
  8
0
100
AcDbLine
 10
-26.15530050527073
 20
23.71375946761152
 30
0.0
 11
-26.39034546630112
 21
20.99756001978706
 31
0.0
  0
LINE
  5
13C
330
1F
100
AcDbEntity
  8
0
100
AcDbLine
 10
-27.72842746683401
 20
24.06630464669352
 30
0.0
 11
-39.84986527255314
 21
22.1378693004449
 31
0.0
  0
LINE
  5
13D
330
1F
100
AcDbEntity
  8
0
100
AcDbLine
 10
-51.66127319569168
 20
42.6211577130761
 30
0.0
 11
-54.28813139288955
 21
42.89984221217757
 31
0.0
  0
LINE
  5
13E
330
1F
100
AcDbEntity
  8
0
100
AcDbLine
 10
-54.28813139288955
 20
42.89984221217757
 30
0.0
 11
-54.32901723572288
 21
43.26039230627276
 31
0.0
  0
LINE
  5
13F
330
1F
100
AcDbEntity
  8
0
100
AcDbLine
 10
-51.66127319569168
 20
42.6211577130761
 30
0.0
 11
-51.70111776162445
 21
42.99017665550527
 31
0.0
  0
LINE
  5
140
330
1F
100
AcDbEntity
  8
0
100
AcDbLine
 10
-51.41692909024994
 20
42.61270791171631
 30
0.0
 11
-51.51556865639938
 21
42.61369155099347
 31
0.0
  0
LINE
  5
141
330
1F
100
AcDbEntity
  8
0
100
AcDbLine
 10
-51.09936305228425
 20
42.6211577130761
 30
0.0
 11
-51.13253013437255
 21
42.93171122437651
 31
0.0
  0
LINE
  5
142
330
1F
100
AcDbEntity
  8
0
100
AcDbLine
 10
-54.33073241658617
 20
42.91215245557237
 30
0.0
 11
-54.3707391267966
 21
43.26468238968685
 31
0.0
  0
LINE
  5
143
330
1F
100
AcDbEntity
  8
0
100
AcDbLine
 10
-51.09936305228425
 20
42.6211577130761
 30
0.0
 11
-51.20143408863912
 21
42.6165744957886
 31
0.0
  0
LINE
  5
144
330
1F
100
AcDbEntity
  8
0
100
AcDbLine
 10
-54.32308238536929
 20
42.90553274013422
 30
0.0
 11
-54.33073241658617
 21
42.91215245557237
 31
0.0
  0
LINE
  5
145
330
1F
100
AcDbEntity
  8
0
100
AcDbLine
 10
-54.28813139288955
 20
42.89984221217757
 30
0.0
 11
-54.32308238536929
 21
42.90553274013422
 31
0.0
  0
LINE
  5
146
330
1F
100
AcDbEntity
  8
0
100
AcDbLine
 10
-51.20143408863912
 20
42.6165744957886
 30
0.0
 11
-51.30976577712551
 21
42.61369155099347
 31
0.0
  0
LINE
  5
147
330
1F
100
AcDbEntity
  8
0
100
AcDbLine
 10
-51.30976577712551
 20
42.61369155099347
 30
0.0
 11
-51.41692909024994
 21
42.61270791171631
 31
0.0
  0
LINE
  5
148
330
1F
100
AcDbEntity
  8
0
100
AcDbLine
 10
-51.5989181257458
 20
42.6165744957886
 30
0.0
 11
-51.66127319569168
 21
42.6211577130761
 31
0.0
  0
LINE
  5
149
330
1F
100
AcDbEntity
  8
0
100
AcDbLine
 10
-51.51556865639938
 20
42.61369155099347
 30
0.0
 11
-51.5989181257458
 21
42.6165744957886
 31
0.0
  0
LINE
  5
14A
330
1F
100
AcDbEntity
  8
0
100
AcDbLine
 10
32.26112932636683
 20
33.79486489293829
 30
0.0
 11
32.10757752429994
 21
33.78609851846887
 31
0.0
  0
LINE
  5
14B
330
1F
100
AcDbEntity
  8
0
100
AcDbLine
 10
32.38284466172249
 20
33.80879488594194
 30
0.0
 11
32.41950058415254
 21
34.34041365912376
 31
0.0
  0
LINE
  5
14C
330
1F
100
AcDbEntity
  8
0
100
AcDbLine
 10
32.38284466172249
 20
33.80879488594194
 30
0.0
 11
32.26112932636683
 21
33.79486489293829
 31
0.0
  0
LINE
  5
14D
330
1F
100
AcDbEntity
  8
0
100
AcDbLine
 10
32.10757752429994
 20
33.78609851846887
 30
0.0
 11
31.93273972916248
 21
33.78310677172459
 31
0.0
  0
LINE
  5
14E
330
1F
100
AcDbEntity
  8
0
100
AcDbLine
 10
23.2970337563634
 20
34.6979255152431
 30
0.0
 11
23.29516756695965
 21
34.71866680295698
 31
0.0
  0
LINE
  5
14F
330
1F
100
AcDbEntity
  8
0
100
AcDbLine
 10
23.29516756695965
 20
34.71866680295698
 30
0.0
 11
23.3227484563696
 21
35.27579372990164
 31
0.0
  0
LINE
  5
150
330
1F
100
AcDbEntity
  8
0
100
AcDbLine
 10
23.43334805735079
 20
34.65773286979306
 30
0.0
 11
23.34412036326744
 21
34.67714064149233
 31
0.0
  0
LINE
  5
151
330
1F
100
AcDbEntity
  8
0
100
AcDbLine
 10
31.56806699795288
 20
33.79486489293829
 30
0.0
 11
31.40336658074133
 21
33.80879488594194
 31
0.0
  0
LINE
  5
152
330
1F
100
AcDbEntity
  8
0
100
AcDbLine
 10
31.40336658074133
 20
33.80879488594194
 30
0.0
 11
31.4456098030159
 21
34.44055467813727
 31
0.0
  0
LINE
  5
153
330
1F
100
AcDbEntity
  8
0
100
AcDbLine
 10
31.7486700213699
 20
33.78609851846888
 30
0.0
 11
31.56806699795288
 21
33.79486489293829
 31
0.0
  0
LINE
  5
154
330
1F
100
AcDbEntity
  8
0
100
AcDbLine
 10
23.34412036326744
 20
34.67714064149233
 30
0.0
 11
23.2970337563634
 21
34.6979255152431
 31
0.0
  0
LINE
  5
155
330
1F
100
AcDbEntity
  8
0
100
AcDbLine
 10
31.93273972916248
 20
33.78310677172459
 30
0.0
 11
31.7486700213699
 21
33.78609851846888
 31
0.0
  0
LINE
  5
156
330
1F
100
AcDbEntity
  8
0
100
AcDbLine
 10
23.55872105588637
 20
34.64103665333342
 30
0.0
 11
23.43334805735079
 21
34.65773286979306
 31
0.0
  0
LINE
  5
157
330
1F
100
AcDbEntity
  8
0
100
AcDbLine
 10
23.55872105588637
 20
34.64103665333342
 30
0.0
 11
23.58913424430153
 21
35.2484024199407
 31
0.0
  0
LINE
  5
158
330
1F
100
AcDbEntity
  8
0
100
AcDbLine
 10
-22.03667857987358
 20
39.47827191878383
 30
0.0
 11
-22.05818360958566
 21
39.94212066192554
 31
0.0
  0
LINE
  5
159
330
1F
100
AcDbEntity
  8
0
100
AcDbLine
 10
-21.32584488838987
 20
39.47827191878383
 30
0.0
 11
-21.34335842572005
 21
39.86861824901094
 31
0.0
  0
LINE
  5
15A
330
1F
100
AcDbEntity
  8
0
100
AcDbLine
 10
-25.13959127120478
 20
39.81733626222847
 30
0.0
 11
-25.1630602171787
 21
40.26138182900703
 31
0.0
  0
LINE
  5
15B
330
1F
100
AcDbEntity
  8
0
100
AcDbLine
 10
-25.04618947771445
 20
39.79755220502078
 30
0.0
 11
-25.07011071021348
 21
40.25182422919749
 31
0.0
  0
LINE
  5
15C
330
1F
100
AcDbEntity
  8
0
100
AcDbLine
 10
-19.21438850761655
 20
39.64970538816718
 30
0.0
 11
-21.32584488838987
 21
39.47827191878383
 31
0.0
  0
LINE
  5
15D
330
1F
100
AcDbEntity
  8
0
100
AcDbLine
 10
-21.82872819747954
 20
39.46632180193457
 30
0.0
 11
-21.700808824003
 21
39.4647471208046
 31
0.0
  0
LINE
  5
15E
330
1F
100
AcDbEntity
  8
0
100
AcDbLine
 10
-25.10871541890892
 20
39.80669897543906
 30
0.0
 11
-25.04618947771445
 21
39.79755220502078
 31
0.0
  0
LINE
  5
15F
330
1F
100
AcDbEntity
  8
0
100
AcDbLine
 10
-21.700808824003
 20
39.4647471208046
 30
0.0
 11
-21.56833774726064
 21
39.46632180193455
 31
0.0
  0
LINE
  5
160
330
1F
100
AcDbEntity
  8
0
100
AcDbLine
 10
-22.03667857987358
 20
39.47827191878383
 30
0.0
 11
-21.94330381260243
 21
39.47093663028738
 31
0.0
  0
LINE
  5
161
330
1F
100
AcDbEntity
  8
0
100
AcDbLine
 10
-21.44042271447078
 20
39.47093663028738
 30
0.0
 11
-21.32584488838987
 21
39.47827191878383
 31
0.0
  0
LINE
  5
162
330
1F
100
AcDbEntity
  8
0
100
AcDbLine
 10
-21.94330381260243
 20
39.47093663028738
 30
0.0
 11
-21.82872819747954
 21
39.46632180193457
 31
0.0
  0
LINE
  5
163
330
1F
100
AcDbEntity
  8
0
100
AcDbLine
 10
-25.13959127120478
 20
39.81733626222847
 30
0.0
 11
-25.10871541890892
 21
39.80669897543906
 31
0.0
  0
LINE
  5
164
330
1F
100
AcDbEntity
  8
0
100
AcDbLine
 10
-22.03667857987358
 20
39.47827191878383
 30
0.0
 11
-25.04618947771445
 21
39.79755220502078
 31
0.0
  0
LINE
  5
165
330
1F
100
AcDbEntity
  8
0
100
AcDbLine
 10
-21.56833774726064
 20
39.46632180193455
 30
0.0
 11
-21.44042271447078
 21
39.47093663028738
 31
0.0
  0
LINE
  5
166
330
1F
100
AcDbEntity
  8
0
100
AcDbLine
 10
42.514700804607
 20
-16.30521461552561
 30
0.0
 11
38.0831843963295
 21
-18.89926875455582
 31
0.0
  0
LINE
  5
167
330
1F
100
AcDbEntity
  8
0
100
AcDbLine
 10
31.99794760744667
 20
-22.46135275128783
 30
0.0
 11
19.1257632399524
 21
-29.99627760781967
 31
0.0
  0
LINE
  5
168
330
1F
100
AcDbEntity
  8
0
100
AcDbLine
 10
14.37441887357163
 20
-32.77754780610802
 30
0.0
 11
10.59195010616728
 21
-34.99167224069445
 31
0.0
  0
LINE
  5
169
330
1F
100
AcDbEntity
  8
0
100
AcDbLine
 10
62.614887614325
 20
-10.30795459239587
 30
0.0
 11
63.08303508669457
 21
-7.126431533614923
 31
0.0
  0
LINE
  5
16A
330
1F
100
AcDbEntity
  8
0
100
AcDbLine
 10
10.47490258215101
 20
-39.42126670637704
 30
0.0
 11
10.35687597436583
 21
-43.88791401944518
 31
0.0
  0
LINE
  5
16B
330
1F
100
AcDbEntity
  8
0
100
AcDbLine
 10
10.35687597436583
 20
-43.88791401944518
 30
0.0
 11
62.614887614325
 21
-10.30795459239587
 31
0.0
  0
LINE
  5
16C
330
1F
100
AcDbEntity
  8
0
100
AcDbLine
 10
-8.66333212530521
 20
12.38608285702335
 30
0.0
 11
-8.76762713692328
 21
12.3605738921922
 31
0.0
  0
LINE
  5
16D
330
1F
100
AcDbEntity
  8
0
100
AcDbLine
 10
-61.10052675345987
 20
-0.4392530134201547
 30
0.0
 11
-61.52941846326293
 21
-0.5441533664859435
 31
0.0
  0
LINE
  5
16E
330
1F
100
AcDbEntity
  8
0
100
AcDbLine
 10
-10.22869809056645
 20
12.81180790918549
 30
0.0
 11
-10.3328766745595
 21
12.7868124714939
 31
0.0
  0
LINE
  5
16F
330
1F
100
AcDbEntity
  8
0
100
AcDbLine
 10
-39.66147397494892
 20
5.750038709505565
 30
0.0
 11
-52.73439956877166
 21
2.613467980641682
 31
0.0
  0
LINE
  5
170
330
1F
100
AcDbEntity
  8
0
100
AcDbLine
 10
-8.662284634007728
 20
12.33188770656929
 30
0.0
 11
-8.66333212530521
 21
12.38608285702335
 31
0.0
  0
LINE
  5
171
330
1F
100
AcDbEntity
  8
0
100
AcDbLine
 10
-50.14749201621503
 20
-0.6016649555359623
 30
0.0
 11
-32.05370034215561
 21
4.064502623760723
 31
0.0
  0
LINE
  5
172
330
1F
100
AcDbEntity
  8
0
100
AcDbLine
 10
-28.26775866851554
 20
17.67072295173077
 30
0.0
 11
-28.01132101574562
 21
20.71165207439443
 31
0.0
  0
LINE
  5
173
330
1F
100
AcDbEntity
  8
0
100
AcDbLine
 10
-27.72842746683401
 20
24.06630464669352
 30
0.0
 11
-26.63764817088487
 21
37.00115446933776
 31
0.0
  0
LINE
  5
174
330
1F
100
AcDbEntity
  8
0
100
AcDbLine
 10
-24.61180387103323
 20
16.67515710654075
 30
0.0
 11
-22.83559270114595
 21
36.51538147959081
 31
0.0
  0
LINE
  5
175
330
1F
100
AcDbEntity
  8
0
100
AcDbLine
 10
-38.17993077748403
 20
5.166774231690949
 30
0.0
 11
-38.53739347454916
 21
6.552424787789262
 31
0.0
  0
LINE
  5
176
330
1F
100
AcDbEntity
  8
0
100
AcDbLine
 10
-42.39830277113861
 20
21.5186608672134
 30
0.0
 11
-47.06570963587469
 21
39.61116386335224
 31
0.0
  0
LINE
  5
177
330
1F
100
AcDbEntity
  8
0
100
AcDbLine
 10
-39.66147397494892
 20
5.750038709505565
 30
0.0
 11
-40.02116748686424
 21
7.121778422557205
 31
0.0
  0
LINE
  5
178
330
1F
100
AcDbEntity
  8
0
100
AcDbLine
 10
-43.90377373701635
 20
21.92862093443996
 30
0.0
 11
-49.35499212986115
 21
42.71757738284856
 31
0.0
  0
LINE
  5
179
330
1F
100
AcDbEntity
  8
0
100
AcDbLine
 10
42.514700804607
 20
-16.30521461552561
 30
0.0
 11
42.54188527728554
 21
-16.16332310777634
 31
0.0
  0
LINE
  5
17A
330
1F
100
AcDbEntity
  8
0
100
AcDbLine
 10
43.99780687204829
 20
-8.564025056701134
 30
0.0
 11
45.70280084370145
 21
0.3353259883598874
 31
0.0
  0
LINE
  5
17B
330
1F
100
AcDbEntity
  8
0
100
AcDbLine
 10
35.71726778804771
 20
-23.92560120970324
 30
0.0
 11
34.30893452331438
 21
34.11258841775903
 31
0.0
  0
LINE
  5
17C
330
1F
100
AcDbEntity
  8
0
100
AcDbLine
 10
-59.8209688236811
 20
-3.665551616914155
 30
0.0
 11
-56.63478106050415
 21
-2.835749381310316
 31
0.0
  0
LINE
  5
17D
330
1F
100
AcDbEntity
  8
0
100
AcDbLine
 10
-61.1973800289858
 20
-2.893179497826281
 30
0.0
 11
-59.8209688236811
 21
-3.665551616914155
 31
0.0
  0
LINE
  5
17E
330
1F
100
AcDbEntity
  8
0
100
AcDbLine
 10
-57.3397662281084
 20
-2.632394184813008
 30
0.0
 11
-57.39868031156749
 21
-2.646256401094576
 31
0.0
  0
LINE
  5
17F
330
1F
100
AcDbEntity
  8
0
100
AcDbLine
 10
-57.284338818827
 20
-2.616678727959314
 30
0.0
 11
-57.3397662281084
 21
-2.632394184813008
 31
0.0
  0
LINE
  5
180
330
1F
100
AcDbEntity
  8
0
100
AcDbLine
 10
-57.23327401373366
 20
-2.599360717823376
 30
0.0
 11
-57.284338818827
 21
-2.616678727959314
 31
0.0
  0
LINE
  5
181
330
1F
100
AcDbEntity
  8
0
100
AcDbLine
 10
-57.18737675911508
 20
-2.580715931025766
 30
0.0
 11
-57.23327401373366
 21
-2.599360717823376
 31
0.0
  0
LINE
  5
182
330
1F
100
AcDbEntity
  8
0
100
AcDbLine
 10
-57.14736835002158
 20
-2.561040716867286
 30
0.0
 11
-57.18737675911508
 21
-2.580715931025766
 31
0.0
  0
LINE
  5
183
330
1F
100
AcDbEntity
  8
0
100
AcDbLine
 10
-57.59367169586475
 20
-2.362523208927136
 30
0.0
 11
-57.53039478754932
 21
-2.355492210618097
 31
0.0
  0
LINE
  5
184
330
1F
100
AcDbEntity
  8
0
100
AcDbLine
 10
-57.65641406696564
 20
-2.371949170736599
 30
0.0
 11
-57.59367169586475
 21
-2.362523208927136
 31
0.0
  0
LINE
  5
185
330
1F
100
AcDbEntity
  8
0
100
AcDbLine
 10
-57.71763954573115
 20
-2.383623739265524
 30
0.0
 11
-57.65641406696564
 21
-2.371949170736599
 31
0.0
  0
LINE
  5
186
330
1F
100
AcDbEntity
  8
0
100
AcDbLine
 10
-57.77638826524147
 20
-2.397365441222195
 30
0.0
 11
-57.71763954573115
 21
-2.383623739265524
 31
0.0
  0
LINE
  5
187
330
1F
100
AcDbEntity
  8
0
100
AcDbLine
 10
-57.83173762706257
 20
-2.412960384005819
 30
0.0
 11
-57.77638826524147
 21
-2.397365441222195
 31
0.0
  0
LINE
  5
188
330
1F
100
AcDbEntity
  8
0
100
AcDbLine
 10
-57.88281660490662
 20
-2.430165452645237
 30
0.0
 11
-57.83173762706257
 21
-2.412960384005819
 31
0.0
  0
LINE
  5
189
330
1F
100
AcDbEntity
  8
0
100
AcDbLine
 10
-57.92881936169789
 20
-2.448711966984749
 30
0.0
 11
-57.88281660490662
 21
-2.430165452645237
 31
0.0
  0
LINE
  5
18A
330
1F
100
AcDbEntity
  8
0
100
AcDbLine
 10
-57.96901797312193
 20
-2.468309752453594
 30
0.0
 11
-57.92881936169789
 21
-2.448711966984749
 31
0.0
  0
LINE
  5
18B
330
1F
100
AcDbEntity
  8
0
100
AcDbLine
 10
-58.00277405651345
 20
-2.488651570639763
 30
0.0
 11
-57.96901797312193
 21
-2.468309752453594
 31
0.0
  0
LINE
  5
18C
330
1F
100
AcDbEntity
  8
0
100
AcDbLine
 10
-58.02954911285303
 20
-2.509417848972957
 30
0.0
 11
-58.00277405651345
 21
-2.488651570639763
 31
0.0
  0
LINE
  5
18D
330
1F
100
AcDbEntity
  8
0
100
AcDbLine
 10
-58.04891340207266
 20
-2.530281642282298
 30
0.0
 11
-58.02954911285303
 21
-2.509417848972957
 31
0.0
  0
LINE
  5
18E
330
1F
100
AcDbEntity
  8
0
100
AcDbLine
 10
-58.06055318810696
 20
-2.550913753041642
 30
0.0
 11
-58.04891340207266
 21
-2.530281642282298
 31
0.0
  0
LINE
  5
18F
330
1F
100
AcDbEntity
  8
0
100
AcDbLine
 10
-58.06427621036334
 20
-2.570987931979077
 30
0.0
 11
-58.06055318810696
 21
-2.550913753041642
 31
0.0
  0
LINE
  5
190
330
1F
100
AcDbEntity
  8
0
100
AcDbLine
 10
-58.06001526255874
 20
-2.590186076649804
 30
0.0
 11
-58.06427621036334
 21
-2.570987931979077
 31
0.0
  0
LINE
  5
191
330
1F
100
AcDbEntity
  8
0
100
AcDbLine
 10
-58.04782978806296
 20
-2.608203342792789
 30
0.0
 11
-58.06001526255874
 21
-2.590186076649804
 31
0.0
  0
LINE
  5
192
330
1F
100
AcDbEntity
  8
0
100
AcDbLine
 10
-58.02790543268272
 20
-2.624753082033517
 30
0.0
 11
-58.04782978806296
 21
-2.608203342792789
 31
0.0
  0
LINE
  5
193
330
1F
100
AcDbEntity
  8
0
100
AcDbLine
 10
-58.00055153071423
 20
-2.63957151994983
 30
0.0
 11
-58.02790543268272
 21
-2.624753082033517
 31
0.0
  0
LINE
  5
194
330
1F
100
AcDbEntity
  8
0
100
AcDbLine
 10
-57.96619653738711
 20
-2.652422090828282
 30
0.0
 11
-58.00055153071423
 21
-2.63957151994983
 31
0.0
  0
LINE
  5
195
330
1F
100
AcDbEntity
  8
0
100
AcDbLine
 10
-57.92538145965074
 20
-2.663099349691282
 30
0.0
 11
-57.96619653738711
 21
-2.652422090828282
 31
0.0
  0
LINE
  5
196
330
1F
100
AcDbEntity
  8
0
100
AcDbLine
 10
-57.87875137660368
 20
-2.67143238838431
 30
0.0
 11
-57.92538145965074
 21
-2.663099349691282
 31
0.0
  0
LINE
  5
197
330
1F
100
AcDbEntity
  8
0
100
AcDbLine
 10
-57.8270451796195
 20
-2.677287690618432
 30
0.0
 11
-57.87875137660368
 21
-2.67143238838431
 31
0.0
  0
LINE
  5
198
330
1F
100
AcDbEntity
  8
0
100
AcDbLine
 10
-57.77108369920989
 20
-2.680571370724379
 30
0.0
 11
-57.8270451796195
 21
-2.677287690618432
 31
0.0
  0
LINE
  5
199
330
1F
100
AcDbEntity
  8
0
100
AcDbLine
 10
-57.71175641971922
 20
-2.681230752275221
 30
0.0
 11
-57.77108369920989
 21
-2.680571370724379
 31
0.0
  0
LINE
  5
19A
330
1F
100
AcDbEntity
  8
0
100
AcDbLine
 10
-57.65000701295713
 20
-2.679255255387282
 30
0.0
 11
-57.71175641971922
 21
-2.681230752275221
 31
0.0
  0
LINE
  5
19B
330
1F
100
AcDbEntity
  8
0
100
AcDbLine
 10
-57.58681794685712
 20
-2.674676575068732
 30
0.0
 11
-57.65000701295713
 21
-2.679255255387282
 31
0.0
  0
LINE
  5
19C
330
1F
100
AcDbEntity
  8
0
100
AcDbLine
 10
-57.52319444438294
 20
-2.667568147063535
 30
0.0
 11
-57.58681794685712
 21
-2.674676575068732
 31
0.0
  0
LINE
  5
19D
330
1F
100
AcDbEntity
  8
0
100
AcDbLine
 10
-57.46014808058403
 20
-2.658043911821455
 30
0.0
 11
-57.52319444438294
 21
-2.667568147063535
 31
0.0
  0
LINE
  5
19E
330
1F
100
AcDbEntity
  8
0
100
AcDbLine
 10
-57.39868031156749
 20
-2.646256401094576
 30
0.0
 11
-57.46014808058403
 21
-2.658043911821455
 31
0.0
  0
LINE
  5
19F
330
1F
100
AcDbEntity
  8
0
100
AcDbLine
 10
-59.74556441783039
 20
-4.210305240889463
 30
0.0
 11
-55.93878167195136
 21
-3.209250274868052
 31
0.0
  0
LINE
  5
1A0
330
1F
100
AcDbEntity
  8
0
100
AcDbLine
 10
-61.12126406067265
 20
-3.431666552705419
 30
0.0
 11
-59.74556441783039
 21
-4.210305240889463
 31
0.0
  0
LINE
  5
1A1
330
1F
100
AcDbEntity
  8
0
100
AcDbLine
 10
-61.12126406067265
 20
-3.431666552705419
 30
0.0
 11
-61.1973800289858
 21
-2.893179497826281
 31
0.0
  0
LINE
  5
1A2
330
1F
100
AcDbEntity
  8
0
100
AcDbLine
 10
-59.74556441783039
 20
-4.210305240889463
 30
0.0
 11
-59.8209688236811
 21
-3.665551616914155
 31
0.0
  0
LINE
  5
1A3
330
1F
100
AcDbEntity
  8
0
100
AcDbLine
 10
3.029845370135988
 20
-38.74873262043911
 30
0.0
 11
2.867453820897205
 21
-38.84311312881119
 31
0.0
  0
LINE
  5
1A4
330
1F
100
AcDbEntity
  8
0
100
AcDbLine
 10
2.867453820897205
 20
-38.84311312881119
 30
0.0
 11
3.02843596468628
 21
-38.9334481384758
 31
0.0
  0
LINE
  5
1A5
330
1F
100
AcDbEntity
  8
0
100
AcDbLine
 10
2.861657103152483
 20
-39.64565996355383
 30
0.0
 11
3.022307898410348
 21
-39.73658746006527
 31
0.0
  0
LINE
  5
1A6
330
1F
100
AcDbEntity
  8
0
100
AcDbLine
 10
2.861657103152483
 20
-39.64565996355383
 30
0.0
 11
2.867453820897205
 21
-38.84311312881119
 31
0.0
  0
LINE
  5
1A7
330
1F
100
AcDbEntity
  8
0
100
AcDbLine
 10
56.17394094454797
 20
-7.86186208561774
 30
0.0
 11
52.98538704707668
 21
-9.715020942872139
 31
0.0
  0
LINE
  5
1A8
330
1F
100
AcDbEntity
  8
0
100
AcDbLine
 10
56.68900635336887
 20
-8.008073729853713
 30
0.0
 11
56.17394094454797
 21
-7.86186208561774
 31
0.0
  0
LINE
  5
1A9
330
1F
100
AcDbEntity
  8
0
100
AcDbLine
 10
52.98538704707668
 20
-9.715020942872139
 30
0.0
 11
53.50809916324769
 21
-9.870065134645136
 31
0.0
  0
LINE
  5
1AA
330
1F
100
AcDbEntity
  8
0
100
AcDbLine
 10
52.92356226164255
 20
-10.21223251694173
 30
0.0
 11
52.98538704707668
 21
-9.715020942872139
 31
0.0
  0
LINE
  5
1AB
330
1F
100
AcDbEntity
  8
0
100
AcDbLine
 10
15.96178650837709
 20
24.54797018021463
 30
0.0
 11
17.7091944162066
 21
24.25642780691928
 31
0.0
  0
LINE
  5
1AC
330
1F
100
AcDbEntity
  8
0
100
AcDbLine
 10
15.89524690818445
 20
24.56205805984075
 30
0.0
 11
15.96178650837709
 21
24.54797018021463
 31
0.0
  0
LINE
  5
1AD
330
1F
100
AcDbEntity
  8
0
100
AcDbLine
 10
15.84945390260592
 20
24.57844703867915
 30
0.0
 11
15.89524690818445
 21
24.56205805984075
 31
0.0
  0
LINE
  5
1AE
330
1F
100
AcDbEntity
  8
0
100
AcDbLine
 10
15.82750028375239
 20
24.59601461748518
 30
0.0
 11
15.84945390260592
 21
24.57844703867915
 31
0.0
  0
LINE
  5
1AF
330
1F
100
AcDbEntity
  8
0
100
AcDbLine
 10
18.23983985394863
 20
24.25642780691928
 30
0.0
 11
18.69232863624561
 21
24.35061351617463
 31
0.0
  0
LINE
  5
1B0
330
1F
100
AcDbEntity
  8
0
100
AcDbLine
 10
18.16875740444951
 20
24.24539697247599
 30
0.0
 11
18.23983985394863
 21
24.25642780691928
 31
0.0
  0
LINE
  5
1B1
330
1F
100
AcDbEntity
  8
0
100
AcDbLine
 10
18.08237646143204
 20
24.23845857729266
 30
0.0
 11
18.16875740444951
 21
24.24539697247599
 31
0.0
  0
LINE
  5
1B2
330
1F
100
AcDbEntity
  8
0
100
AcDbLine
 10
17.98661174816801
 20
24.23609129151497
 30
0.0
 11
18.08237646143204
 21
24.23845857729266
 31
0.0
  0
LINE
  5
1B3
330
1F
100
AcDbEntity
  8
0
100
AcDbLine
 10
17.88803127173252
 20
24.23845857729266
 30
0.0
 11
17.98661174816801
 21
24.23609129151497
 31
0.0
  0
LINE
  5
1B4
330
1F
100
AcDbEntity
  8
0
100
AcDbLine
 10
17.79339746891661
 20
24.24539697247599
 30
0.0
 11
17.88803127173252
 21
24.23845857729266
 31
0.0
  0
LINE
  5
1B5
330
1F
100
AcDbEntity
  8
0
100
AcDbLine
 10
17.7091944162066
 20
24.25642780691928
 30
0.0
 11
17.79339746891661
 21
24.24539697247599
 31
0.0
  0
LINE
  5
1B6
330
1F
100
AcDbEntity
  8
0
100
AcDbLine
 10
15.82750028375239
 20
24.59601461748518
 30
0.0
 11
15.83531105369599
 21
24.82323574037709
 31
0.0
  0
LINE
  5
1B7
330
1F
100
AcDbEntity
  8
0
100
AcDbLine
 10
17.7091944162066
 20
24.25642780691928
 30
0.0
 11
17.71901699678157
 21
24.51162362500116
 31
0.0
  0
LINE
  5
1B8
330
1F
100
AcDbEntity
  8
0
100
AcDbLine
 10
18.23983985394863
 20
24.25642780691928
 30
0.0
 11
18.24649751259638
 21
24.42436514394366
 31
0.0
  0
LINE
  5
1B9
330
1F
100
AcDbEntity
  8
0
100
AcDbLine
 10
15.96178650837709
 20
24.54797018021463
 30
0.0
 11
15.97055442286033
 21
24.80086310174389
 31
0.0
  0
LINE
  5
1BA
330
1F
100
AcDbEntity
  8
0
100
AcDbLine
 10
17.52948801970877
 20
-35.09063067974328
 30
0.0
 11
10.73440131059697
 21
-29.6006904828584
 31
0.0
  0
LINE
  5
1BB
330
1F
100
AcDbEntity
  8
0
100
AcDbLine
 10
10.91466336991417
 20
-22.77877923753342
 30
0.0
 11
10.73440131059697
 21
-29.6006904828584
 31
0.0
  0
LINE
  5
1BC
330
1F
100
AcDbEntity
  8
0
100
AcDbLine
 10
-61.61567496129757
 20
4.974061860281394
 30
0.0
 11
-62.38175531223315
 21
5.4857555965941
 31
0.0
  0
LINE
  5
1BD
330
1F
100
AcDbEntity
  8
0
100
AcDbLine
 10
-61.86806380893773
 20
5.096771035094818
 30
0.0
 11
-62.37457418309515
 21
5.434952261027165
 31
0.0
  0
LINE
  5
1BE
330
1F
100
AcDbEntity
  8
0
100
AcDbLine
 10
-10.41490380805602
 20
20.97913441743751
 30
0.0
 11
-14.89082666971026
 21
14.02800378556076
 31
0.0
  0
LINE
  5
1BF
330
1F
100
AcDbEntity
  8
0
100
AcDbLine
 10
-10.11886505071125
 20
20.91432461450587
 30
0.0
 11
-14.5996259350729
 21
13.94870589443289
 31
0.0
  0
LINE
  5
1C0
330
1F
100
AcDbEntity
  8
0
100
AcDbLine
 10
64.79583719760384
 20
4.513745403369264
 30
0.0
 11
57.48129031824309
 21
-10.56520450206037
 31
0.0
  0
LINE
  5
1C1
330
1F
100
AcDbEntity
  8
0
100
AcDbLine
 10
38.02828781528288
 20
-15.01957006061952
 30
0.0
 11
47.66571914608323
 21
-9.678768153341819
 31
0.0
  0
LINE
  5
1C2
330
1F
100
AcDbEntity
  8
0
100
AcDbLine
 10
38.02828781528288
 20
-15.01957006061952
 30
0.0
 11
38.08200482266331
 21
-18.76933323166332
 31
0.0
  0
LINE
  5
1C3
330
1F
100
AcDbEntity
  8
0
100
AcDbLine
 10
47.66571914608323
 20
-9.678768153341819
 30
0.0
 11
46.88416460953277
 21
-13.6260300086186
 31
0.0
  0
LINE
  5
1C4
330
1F
100
AcDbEntity
  8
0
100
AcDbLine
 10
38.02828781528288
 20
-15.01957006061952
 30
0.0
 11
38.02239567404779
 21
-15.01753747601645
 31
0.0
  0
LINE
  5
1C5
330
1F
100
AcDbEntity
  8
0
100
AcDbLine
 10
60.187303044674
 20
-3.04331643153046
 30
0.0
 11
60.63728700964656
 21
0.1924252548526879
 31
0.0
  0
LINE
  5
1C6
330
1F
100
AcDbEntity
  8
0
100
AcDbLine
 10
51.26595064826291
 20
-0.7484928441722563
 30
0.0
 11
60.187303044674
 21
-3.04331643153046
 31
0.0
  0
LINE
  5
1C7
330
1F
100
AcDbEntity
  8
0
100
AcDbLine
 10
-6.993316391625116
 20
17.38648885210124
 30
0.0
 11
30.85042597671753
 21
8.413756383495832
 31
0.0
  0
LINE
  5
1C8
330
1F
100
AcDbEntity
  8
0
100
AcDbLine
 10
37.68081815542244
 20
6.794273799594647
 30
0.0
 11
42.78105357052119
 21
5.585010522692357
 31
0.0
  0
LINE
  5
1C9
330
1F
100
AcDbEntity
  8
0
100
AcDbLine
 10
52.090396529374
 20
3.377769943384386
 30
0.0
 11
60.79330450222614
 21
1.314314797240616
 31
0.0
  0
LINE
  5
1CA
330
1F
100
AcDbEntity
  8
0
100
AcDbLine
 10
-8.752580120355182
 20
17.00359951967286
 30
0.0
 11
30.88811135561646
 21
7.399797121088929
 31
0.0
  0
LINE
  5
1CB
330
1F
100
AcDbEntity
  8
0
100
AcDbLine
 10
37.69716923115377
 20
5.750157724742374
 30
0.0
 11
41.13391198853776
 21
4.917533542172629
 31
0.0
  0
LINE
  5
1CC
330
1F
100
AcDbEntity
  8
0
100
AcDbLine
 10
51.87796207902412
 20
2.314558412637769
 30
0.0
 11
60.63728700964656
 21
0.1924252548526879
 31
0.0
  0
LINE
  5
1CD
330
1F
100
AcDbEntity
  8
0
100
AcDbLine
 10
3.059440359779883
 20
-34.87003763990968
 30
0.0
 11
3.095117163684204
 21
-30.19426508883125
 31
0.0
  0
LINE
  5
1CE
330
1F
100
AcDbEntity
  8
0
100
AcDbLine
 10
-65.45898357900269
 20
4.661915546932069
 30
0.0
 11
3.095117163684204
 21
-30.19426508883125
 31
0.0
  0
LINE
  5
1CF
330
1F
100
AcDbEntity
  8
0
100
AcDbLine
 10
40.38414189686505
 20
-10.47139603083046
 30
0.0
 11
38.14124592942148
 21
-11.65524530730542
 31
0.0
  0
LINE
  5
1D0
330
1F
100
AcDbEntity
  8
0
100
AcDbLine
 10
22.22765956710116
 20
-4.685581647458179
 30
0.0
 11
31.44646755899027
 21
-7.62328240404041
 31
0.0
  0
LINE
  5
1D1
330
1F
100
AcDbEntity
  8
0
100
AcDbLine
 10
37.93900005514534
 20
-9.692217741761986
 30
0.0
 11
40.38414189686505
 21
-10.47139603083046
 31
0.0
  0
LINE
  5
1D2
330
1F
100
AcDbEntity
  8
0
100
AcDbLine
 10
19.88690558683652
 20
-5.666319150742275
 30
0.0
 11
31.51552981812075
 21
-9.481465056678644
 31
0.0
  0
LINE
  5
1D3
330
1F
100
AcDbEntity
  8
0
100
AcDbLine
 10
37.96885576402541
 20
-11.59868714353183
 30
0.0
 11
38.14124592942148
 21
-11.65524530730542
 31
0.0
  0
LINE
  5
1D4
330
1F
100
AcDbEntity
  8
0
100
AcDbLine
 10
15.20057818675381
 20
-7.629813423390395
 30
0.0
 11
31.65939248136009
 21
-13.35222035138532
 31
0.0
  0
LINE
  5
1D5
330
1F
100
AcDbEntity
  8
0
100
AcDbLine
 10
-29.28302270277128
 20
47.16901246348528
 30
0.0
 11
-28.79426096853658
 21
47.14237786580384
 31
0.0
  0
LINE
  5
1D6
330
1F
100
AcDbEntity
  8
0
100
AcDbLine
 10
-28.79426096853658
 20
47.14237786580384
 30
0.0
 11
66.3288877271042
 21
41.95873393822029
 31
0.0
  0
LINE
  5
1D7
330
1F
100
AcDbEntity
  8
0
100
AcDbLine
 10
65.84009956288767
 20
38.4377751922715
 30
0.0
 11
65.85353485045712
 21
38.53455554976604
 31
0.0
  0
LINE
  5
1D8
330
1F
100
AcDbEntity
  8
0
100
AcDbLine
 10
65.85353485045712
 20
38.53455554976604
 30
0.0
 11
66.3288877271042
 21
41.95873393822029
 31
0.0
  0
LINE
  5
1D9
330
1F
100
AcDbEntity
  8
0
100
AcDbLine
 10
53.78674377313678
 20
36.45661597654475
 30
0.0
 11
56.86262199987419
 21
36.96218509784589
 31
0.0
  0
LINE
  5
1DA
330
1F
100
AcDbEntity
  8
0
100
AcDbLine
 10
-35.98224843631893
 20
46.91488453279484
 30
0.0
 11
-35.4581040579226
 21
46.8837754574278
 31
0.0
  0
LINE
  5
1DB
330
1F
100
AcDbEntity
  8
0
100
AcDbLine
 10
-35.4581040579226
 20
46.8837754574278
 30
0.0
 11
60.40056478113728
 21
41.19436109678404
 31
0.0
  0
LINE
  5
1DC
330
1F
100
AcDbEntity
  8
0
100
AcDbLine
 10
59.9285034887364
 20
37.46611109753722
 30
0.0
 11
59.94264517117399
 21
37.57779940663175
 31
0.0
  0
LINE
  5
1DD
330
1F
100
AcDbEntity
  8
0
100
AcDbLine
 10
59.94264517117399
 20
37.57779940663175
 30
0.0
 11
60.40056478113728
 21
41.19436109678404
 31
0.0
  0
LINE
  5
1DE
330
1F
100
AcDbEntity
  8
0
100
AcDbLine
 10
46.26859755270874
 20
35.22089001527765
 30
0.0
 11
52.58531274111066
 21
36.25914182887342
 31
0.0
  0
LINE
  5
1DF
330
1F
100
AcDbEntity
  8
0
100
AcDbLine
 10
52.58531274111066
 20
36.25914182887342
 30
0.0
 11
53.25460110432654
 21
36.36914993216789
 31
0.0
  0
LINE
  5
1E0
330
1F
100
AcDbEntity
  8
0
100
AcDbLine
 10
-43.16399122056446
 20
46.64245283619265
 30
0.0
 11
-42.60036287587159
 21
46.60572616448243
 31
0.0
  0
LINE
  5
1E1
330
1F
100
AcDbEntity
  8
0
100
AcDbLine
 10
-42.60036287587159
 20
46.60572616448243
 30
0.0
 11
53.70136533221083
 21
40.33059470537844
 31
0.0
  0
LINE
  5
1E2
330
1F
100
AcDbEntity
  8
0
100
AcDbLine
 10
53.25460110432654
 20
36.36914993216789
 30
0.0
 11
53.26930708272597
 21
36.49954739380259
 31
0.0
  0
LINE
  5
1E3
330
1F
100
AcDbEntity
  8
0
100
AcDbLine
 10
53.26930708272597
 20
36.49954739380259
 30
0.0
 11
53.70136533221083
 21
40.33059470537844
 31
0.0
  0
LINE
  5
1E4
330
1F
100
AcDbEntity
  8
0
100
AcDbLine
 10
37.64362362496391
 20
33.80323945551518
 30
0.0
 11
44.50905485765388
 21
34.93168140926122
 31
0.0
  0
LINE
  5
1E5
330
1F
100
AcDbEntity
  8
0
100
AcDbLine
 10
44.50905485765388
 20
34.93168140926122
 30
0.0
 11
45.66078001246625
 21
35.12098561169596
 31
0.0
  0
LINE
  5
1E6
330
1F
100
AcDbEntity
  8
0
100
AcDbLine
 10
-50.88232907186619
 20
46.3496659822285
 30
0.0
 11
-50.27440971797306
 21
46.30575556025622
 31
0.0
  0
LINE
  5
1E7
330
1F
100
AcDbEntity
  8
0
100
AcDbLine
 10
-50.27440971797306
 20
46.30575556025622
 30
0.0
 11
46.07047494463603
 21
39.34670003206142
 31
0.0
  0
LINE
  5
1E8
330
1F
100
AcDbEntity
  8
0
100
AcDbLine
 10
45.66078001246625
 20
35.12098561169596
 30
0.0
 11
45.67574467548178
 21
35.27533556170808
 31
0.0
  0
LINE
  5
1E9
330
1F
100
AcDbEntity
  8
0
100
AcDbLine
 10
45.67574467548178
 20
35.27533556170808
 30
0.0
 11
46.07047494463603
 21
39.34670003206142
 31
0.0
  0
LINE
  5
1EA
330
1F
100
AcDbEntity
  8
0
100
AcDbLine
 10
-18.041094813818
 20
30.42724125538751
 30
0.0
 11
-14.792507260358
 21
29.88984355632871
 31
0.0
  0
LINE
  5
1EB
330
1F
100
AcDbEntity
  8
0
100
AcDbLine
 10
39.02738264801022
 20
20.98668656136021
 30
0.0
 11
49.33271059297311
 21
19.2819273592353
 31
0.0
  0
LINE
  5
1EC
330
1F
100
AcDbEntity
  8
0
100
AcDbLine
 10
55.07821455659953
 20
18.33147718383599
 30
0.0
 11
58.55205033219661
 21
17.75681779048651
 31
0.0
  0
LINE
  5
1ED
330
1F
100
AcDbEntity
  8
0
100
AcDbLine
 10
-13.09069868111061
 20
32.8922395597775
 30
0.0
 11
-12.74820525871433
 21
32.84306333075804
 31
0.0
  0
LINE
  5
1EE
330
1F
100
AcDbEntity
  8
0
100
AcDbLine
 10
-12.74820525871433
 20
32.84306333075804
 30
0.0
 11
30.17151311916352
 21
26.68052191424141
 31
0.0
  0
LINE
  5
1EF
330
1F
100
AcDbEntity
  8
0
100
AcDbLine
 10
74.95299368772923
 20
17.40546806612155
 30
0.0
 11
74.97786707977855
 21
17.55587829347555
 31
0.0
  0
LINE
  5
1F0
330
1F
100
AcDbEntity
  8
0
100
AcDbLine
 10
74.97786707977855
 20
17.55587829347555
 30
0.0
 11
75.41259172604138
 21
20.184672659404
 31
0.0
  0
LINE
  5
1F1
330
1F
100
AcDbEntity
  8
0
100
AcDbLine
 10
58.79424308395031
 20
17.37451107738823
 30
0.0
 11
62.93069773299619
 21
16.6838677487937
 31
0.0
  0
LINE
  5
1F2
330
1F
100
AcDbEntity
  8
0
100
AcDbLine
 10
62.93069773299619
 20
16.6838677487937
 30
0.0
 11
65.17304127135141
 21
16.30947476335644
 31
0.0
  0
LINE
  5
1F3
330
1F
100
AcDbEntity
  8
0
100
AcDbLine
 10
60.187303044674
 20
-3.04331643153046
 30
0.0
 11
60.10427091776002
 21
-3.640383294525769
 31
0.0
  0
LINE
  5
1F4
330
1F
100
AcDbEntity
  8
0
100
AcDbLine
 10
-8.952014056883762
 20
27.32192123100693
 30
0.0
 11
-7.141711085676664
 21
27.00368216417893
 31
0.0
  0
LINE
  5
1F5
330
1F
100
AcDbEntity
  8
0
100
AcDbLine
 10
-7.141711085676664
 20
27.00368216417893
 30
0.0
 11
30.4048175296884
 21
20.40325537417185
 31
0.0
  0
LINE
  5
1F6
330
1F
100
AcDbEntity
  8
0
100
AcDbLine
 10
-71.00381791764045
 20
25.81016066202926
 30
0.0
 11
-70.3629936367325
 21
25.61140389428671
 31
0.0
  0
LINE
  5
1F7
330
1F
100
AcDbEntity
  8
0
100
AcDbLine
 10
-70.3629936367325
 20
25.61140389428671
 30
0.0
 11
18.55465145271836
 21
-1.967113742746458
 31
0.0
  0
LINE
  5
1F8
330
1F
100
AcDbEntity
  8
0
100
AcDbLine
 10
18.36926029246294
 20
-6.30218762279139
 30
0.0
 11
18.39207689563416
 21
-5.768658082857616
 31
0.0
  0
LINE
  5
1F9
330
1F
100
AcDbEntity
  8
0
100
AcDbLine
 10
18.39207689563416
 20
-5.768658082857616
 30
0.0
 11
18.55465145271836
 21
-1.967113742746458
 31
0.0
  0
LINE
  5
1FA
330
1F
100
AcDbEntity
  8
0
100
AcDbLine
 10
-67.38483851666393
 20
17.62176388671997
 30
0.0
 11
-65.45898357900269
 21
4.661915546932069
 31
0.0
  0
LINE
  5
1FB
330
1F
100
AcDbEntity
  8
0
100
AcDbLine
 10
19.09039981598069
 20
-6.000041997161276
 30
0.0
 11
19.88690558683652
 21
-5.666319150742275
 31
0.0
  0
LINE
  5
1FC
330
1F
100
AcDbEntity
  8
0
100
AcDbLine
 10
37.83860292671044
 20
-3.281247760926698
 30
0.0
 11
45.70280084370145
 21
0.3353259883598874
 31
0.0
  0
LINE
  5
1FD
330
1F
100
AcDbEntity
  8
0
100
AcDbLine
 10
45.70280084370145
 20
0.3353259883598874
 30
0.0
 11
50.03301889241421
 21
2.326699182290593
 31
0.0
  0
LINE
  5
1FE
330
1F
100
AcDbEntity
  8
0
100
AcDbLine
 10
47.03915575301728
 20
7.310536256852044
 30
0.0
 11
42.78105357052119
 21
5.585010522692357
 31
0.0
  0
LINE
  5
1FF
330
1F
100
AcDbEntity
  8
0
100
AcDbLine
 10
-34.94424821734226
 20
19.48882118564696
 30
0.0
 11
-28.01132101574562
 21
20.71165207439443
 31
0.0
  0
LINE
  5
200
330
1F
100
AcDbEntity
  8
0
100
AcDbLine
 10
-28.01132101574562
 20
20.71165207439443
 30
0.0
 11
-26.39034546630112
 21
20.99756001978706
 31
0.0
  0
LINE
  5
201
330
1F
100
AcDbEntity
  8
0
100
AcDbLine
 10
-49.15665483460711
 20
42.72854042761509
 30
0.0
 11
-49.35499212986115
 21
42.71757738284856
 31
0.0
  0
LINE
  5
202
330
1F
100
AcDbEntity
  8
0
100
AcDbLine
 10
-49.35499212986115
 20
42.71757738284856
 30
0.0
 11
-51.09936305228425
 21
42.6211577130761
 31
0.0
  0
LINE
  5
203
330
1F
100
AcDbEntity
  8
0
100
AcDbLine
 10
34.43767249963314
 20
34.13289368247423
 30
0.0
 11
34.30893452331438
 21
34.11258841775903
 31
0.0
  0
LINE
  5
204
330
1F
100
AcDbEntity
  8
0
100
AcDbLine
 10
34.30893452331438
 20
34.11258841775903
 30
0.0
 11
32.38284466172249
 21
33.80879488594194
 31
0.0
  0
LINE
  5
205
330
1F
100
AcDbEntity
  8
0
100
AcDbLine
 10
31.40336658074133
 20
33.80879488594194
 30
0.0
 11
29.90065450801359
 21
33.96821824641437
 31
0.0
  0
LINE
  5
206
330
1F
100
AcDbEntity
  8
0
100
AcDbLine
 10
17.52948801970877
 20
-35.09063067974328
 30
0.0
 11
10.47490258215101
 21
-39.42126670637704
 31
0.0
  0
LINE
  5
207
330
1F
100
AcDbEntity
  8
0
100
AcDbLine
 10
52.92356226164255
 20
-10.21223251694173
 30
0.0
 11
48.90505399060049
 21
-12.56452619089786
 31
0.0
  0
LINE
  5
208
330
1F
100
AcDbEntity
  8
0
100
AcDbLine
 10
-38.17993077748403
 20
5.166774231690949
 30
0.0
 11
-54.03563016969633
 21
1.288712645674545
 31
0.0
  0
LINE
  5
209
330
1F
100
AcDbEntity
  8
0
100
AcDbLine
 10
-61.52941846326293
 20
-0.5441533664859435
 30
0.0
 11
-61.1973800289858
 21
-2.893179497826281
 31
0.0
  0
LINE
  5
20A
330
1F
100
AcDbEntity
  8
0
100
AcDbLine
 10
-26.15530050527073
 20
23.71375946761152
 30
0.0
 11
-25.02333057198393
 21
36.79489974931574
 31
0.0
  0
LINE
  5
20B
330
1F
100
AcDbEntity
  8
0
100
AcDbLine
 10
46.1150803885639
 20
-17.54264047522104
 30
0.0
 11
47.66571914608323
 21
-9.678768153341819
 31
0.0
  0
LINE
  5
20C
330
1F
100
AcDbEntity
  8
0
100
AcDbLine
 10
48.16139520451264
 20
-16.28645827398178
 30
0.0
 11
48.90505399060049
 21
-12.56452619089786
 31
0.0
  0
LINE
  5
20D
330
1F
100
AcDbEntity
  8
0
100
AcDbLine
 10
38.13862034267929
 20
-22.43919258951092
 30
0.0
 11
38.0831843963295
 21
-18.89926875455582
 31
0.0
  0
LINE
  5
20E
330
1F
100
AcDbEntity
  8
0
100
AcDbLine
 10
10.91466336991417
 20
-22.77877923753342
 30
0.0
 11
19.1257632399524
 21
-29.99627760781967
 31
0.0
  0
LINE
  5
20F
330
1F
100
AcDbEntity
  8
0
100
AcDbLine
 10
19.1257632399524
 20
-29.99627760781967
 30
0.0
 11
21.88182637523085
 21
-32.41883749652137
 31
0.0
  0
LINE
  5
210
330
1F
100
AcDbEntity
  8
0
100
AcDbLine
 10
16.79478278972858
 20
-34.72698866080847
 30
0.0
 11
14.37441887357163
 21
-32.77754780610802
 31
0.0
  0
LINE
  5
211
330
1F
100
AcDbEntity
  8
0
100
AcDbLine
 10
14.37441887357163
 20
-32.77754780610802
 30
0.0
 11
10.72806060612103
 21
-29.84065070150662
 31
0.0
  0
LINE
  5
212
330
1F
100
AcDbEntity
  8
0
100
AcDbLine
 10
-62.97453707548151
 20
9.679426293433556
 30
0.0
 11
-52.73439956877166
 21
2.613467980641682
 31
0.0
  0
LINE
  5
213
330
1F
100
AcDbEntity
  8
0
100
AcDbLine
 10
-52.73439956877166
 20
2.613467980641682
 30
0.0
 11
-52.53480184588021
 21
2.475740417085516
 31
0.0
  0
LINE
  5
214
330
1F
100
AcDbEntity
  8
0
100
AcDbLine
 10
-12.71157021085093
 20
13.43456283277759
 30
0.0
 11
-10.32792970303302
 21
17.16428961534495
 31
0.0
  0
LINE
  5
215
330
1F
100
AcDbEntity
  8
0
100
AcDbLine
 10
-10.32792970303302
 20
17.16428961534495
 30
0.0
 11
-10.04557470008391
 21
17.60609575735218
 31
0.0
  0
LINE
  5
216
330
1F
100
AcDbEntity
  8
0
100
AcDbLine
 10
58.49352769330179
 20
-6.95177028436091
 30
0.0
 11
56.82924482903933
 21
-10.37322476601991
 31
0.0
  0
LINE
  5
217
330
1F
100
AcDbEntity
  8
0
100
AcDbLine
 10
59.79539293847363
 20
-9.144633971701005
 30
0.0
 11
61.03678886492408
 21
-6.569923791123854
 31
0.0
  0
LINE
  5
218
330
1F
100
AcDbEntity
  8
0
100
AcDbLine
 10
61.03678886492408
 20
-6.569923791123854
 30
0.0
 11
64.09967501376919
 21
-0.2173621455182193
 31
0.0
  0
LINE
  5
219
330
1F
100
AcDbEntity
  8
0
100
AcDbLine
 10
38.08200482266331
 20
-18.76933323166332
 30
0.0
 11
42.54188527728554
 21
-16.16332310777634
 31
0.0
  0
LINE
  5
21A
330
1F
100
AcDbEntity
  8
0
100
AcDbLine
 10
42.54188527728554
 20
-16.16332310777634
 30
0.0
 11
46.88416460953277
 21
-13.6260300086186
 31
0.0
  0
LINE
  5
21B
330
1F
100
AcDbEntity
  8
0
100
AcDbLine
 10
40.38414189686505
 20
-10.47139603083046
 30
0.0
 11
43.99780687204829
 21
-8.564025056701134
 31
0.0
  0
LINE
  5
21C
330
1F
100
AcDbEntity
  8
0
100
AcDbLine
 10
-8.707638474177884
 20
14.67840666851512
 30
0.0
 11
-6.944532399475765
 21
14.22488603313829
 31
0.0
  0
LINE
  5
21D
330
1F
100
AcDbEntity
  8
0
100
AcDbLine
 10
-6.944532399475765
 20
14.22488603313829
 30
0.0
 11
30.99717998115109
 21
4.465206934389768
 31
0.0
  0
LINE
  5
21E
330
1F
100
AcDbEntity
  8
0
100
AcDbLine
 10
-65.01293892550683
 20
1.660302627374548
 30
0.0
 11
-61.58066727059312
 21
-0.1815905569122123
 31
0.0
  0
LINE
  5
21F
330
1F
100
AcDbEntity
  8
0
100
AcDbLine
 10
-26.63764817088487
 20
37.00115446933776
 30
0.0
 11
-25.02333057198393
 21
36.79489974931574
 31
0.0
  0
LINE
  5
220
330
1F
100
AcDbEntity
  8
0
100
AcDbLine
 10
-25.02333057198393
 20
36.79489974931574
 30
0.0
 11
-22.83559270114595
 21
36.51538147959081
 31
0.0
  0
LINE
  5
221
330
1F
100
AcDbEntity
  8
0
100
AcDbLine
 10
-22.83559270114595
 20
36.51538147959081
 30
0.0
 11
29.28014930986908
 21
29.85676747170253
 31
0.0
  0
LINE
  5
222
330
1F
100
AcDbEntity
  8
0
100
AcDbLine
 10
56.86262199987419
 20
36.96218509784589
 30
0.0
 11
58.86652406509864
 21
37.29155802213218
 31
0.0
  0
LINE
  5
223
330
1F
100
AcDbEntity
  8
0
100
AcDbLine
 10
58.86652406509864
 20
37.29155802213218
 30
0.0
 11
59.9285034887364
 21
37.46611109753722
 31
0.0
  0
LINE
  5
224
330
1F
100
AcDbEntity
  8
0
100
AcDbLine
 10
-14.792507260358
 20
29.88984355632871
 30
0.0
 11
-14.72258217759554
 21
29.87827619729508
 31
0.0
  0
LINE
  5
225
330
1F
100
AcDbEntity
  8
0
100
AcDbLine
 10
37.45448728051231
 20
21.24688282741232
 30
0.0
 11
38.00091147967254
 21
21.15649058693661
 31
0.0
  0
LINE
  5
226
330
1F
100
AcDbEntity
  8
0
100
AcDbLine
 10
58.55205033219661
 20
17.75681779048651
 30
0.0
 11
58.83770860955636
 21
17.70956276089473
 31
0.0
  0
LINE
  5
227
330
1F
100
AcDbEntity
  8
0
100
AcDbLine
 10
66.5498201149163
 20
16.43378647053397
 30
0.0
 11
64.79583719760384
 21
4.513745403369264
 31
0.0
  0
LINE
  5
228
330
1F
100
AcDbEntity
  8
0
100
AcDbLine
 10
64.09967501376919
 20
-0.2173621455182193
 30
0.0
 11
63.08303508669457
 21
-7.126431533614923
 31
0.0
  0
LINE
  5
229
330
1F
100
AcDbEntity
  8
0
100
AcDbLine
 10
-8.707638474177884
 20
14.67840666851512
 30
0.0
 11
-8.66333212530521
 21
12.38608285702335
 31
0.0
  0
LINE
  5
22A
330
1F
100
AcDbEntity
  8
0
100
AcDbLine
 10
10.59195010616728
 20
-34.99167224069445
 30
0.0
 11
10.47490258215101
 21
-39.42126670637704
 31
0.0
  0
LINE
  5
22B
330
1F
100
AcDbEntity
  8
0
100
AcDbLine
 10
3.059440359779883
 20
-34.87003763990968
 30
0.0
 11
3.029845370135988
 21
-38.74873262043911
 31
0.0
  0
LINE
  5
22C
330
1F
100
AcDbEntity
  8
0
100
AcDbLine
 10
3.029845370135988
 20
-38.74873262043911
 30
0.0
 11
3.02843596468628
 21
-38.9334481384758
 31
0.0
  0
LINE
  5
22D
330
1F
100
AcDbEntity
  8
0
100
AcDbLine
 10
-32.05370034215561
 20
4.064502623760723
 30
0.0
 11
3.253143706295681
 21
-9.483436499263956
 31
0.0
  0
LINE
  5
22E
330
1F
100
AcDbEntity
  8
0
100
AcDbLine
 10
3.253143706295681
 20
-9.483436499263956
 30
0.0
 11
7.180068023295064
 21
-10.99027555614552
 31
0.0
  0
LINE
  5
22F
330
1F
100
AcDbEntity
  8
0
100
AcDbLine
 10
7.180068023295064
 20
-10.99027555614552
 30
0.0
 11
7.445699410021178
 21
-10.87898036442179
 31
0.0
  0
LINE
  5
230
330
1F
100
AcDbEntity
  8
0
100
AcDbLine
 10
7.445699410021178
 20
-10.87898036442179
 30
0.0
 11
11.27145924887274
 21
-9.276049777032329
 31
0.0
  0
LINE
  5
231
330
1F
100
AcDbEntity
  8
0
100
AcDbLine
 10
11.27145924887274
 20
-9.276049777032329
 30
0.0
 11
15.20057818675381
 21
-7.629813423390395
 31
0.0
  0
LINE
  5
232
330
1F
100
AcDbEntity
  8
0
100
AcDbLine
 10
15.20057818675381
 20
-7.629813423390395
 30
0.0
 11
18.36926029246294
 21
-6.30218762279139
 31
0.0
  0
LINE
  5
233
330
1F
100
AcDbEntity
  8
0
100
AcDbLine
 10
-63.90865239835889
 20
16.28788205218183
 30
0.0
 11
-62.97453707548151
 21
9.679426293433556
 31
0.0
  0
LINE
  5
234
330
1F
100
AcDbEntity
  8
0
100
AcDbLine
 10
-62.97453707548151
 20
9.679426293433556
 30
0.0
 11
-62.38175531223315
 21
5.4857555965941
 31
0.0
  0
LINE
  5
235
330
1F
100
AcDbEntity
  8
0
100
AcDbLine
 10
-62.38175531223315
 20
5.4857555965941
 30
0.0
 11
-62.37457418309515
 21
5.434952261027165
 31
0.0
  0
LINE
  5
236
330
1F
100
AcDbEntity
  8
0
100
AcDbLine
 10
-62.37457418309515
 20
5.434952261027165
 30
0.0
 11
-62.36062225507929
 21
5.336248496316028
 31
0.0
  0
LINE
  5
237
330
1F
100
AcDbEntity
  8
0
100
AcDbLine
 10
-61.58066727059312
 20
-0.1815905569122123
 30
0.0
 11
-61.52941846326293
 21
-0.5441533664859435
 31
0.0
  0
LINE
  5
238
330
1F
100
AcDbEntity
  8
0
100
AcDbLine
 10
-65.01293892550683
 20
1.660302627374548
 30
0.0
 11
-64.14055686873097
 21
-4.210305240889507
 31
0.0
  0
LINE
  5
239
330
1F
100
AcDbEntity
  8
0
100
AcDbLine
 10
19.88690558683652
 20
-5.666319150742275
 30
0.0
 11
22.22765956710116
 21
-4.685581647458179
 31
0.0
  0
LINE
  5
23A
330
1F
100
AcDbEntity
  8
0
100
AcDbLine
 10
22.22765956710116
 20
-4.685581647458179
 30
0.0
 11
28.69128167169933
 21
-1.977430061054045
 31
0.0
  0
LINE
  5
23B
330
1F
100
AcDbEntity
  8
0
100
AcDbLine
 10
-10.3328766745595
 20
12.7868124714939
 30
0.0
 11
-8.76762713692328
 21
12.3605738921922
 31
0.0
  0
LINE
  5
23C
330
1F
100
AcDbEntity
  8
0
100
AcDbLine
 10
42.78105357052119
 20
5.585010522692357
 30
0.0
 11
41.13391198853776
 21
4.917533542172629
 31
0.0
  0
LINE
  5
23D
330
1F
100
AcDbEntity
  8
0
100
AcDbLine
 10
41.13391198853776
 20
4.917533542172629
 30
0.0
 11
37.73179825472137
 21
3.538883019794363
 31
0.0
  0
LINE
  5
23E
330
1F
100
AcDbEntity
  8
0
100
AcDbLine
 10
29.90065450801359
 20
33.96821824641437
 30
0.0
 11
29.54105196404854
 21
34.00636863266188
 31
0.0
  0
LINE
  5
23F
330
1F
100
AcDbEntity
  8
0
100
AcDbLine
 10
29.54105196404854
 20
34.00636863266188
 30
0.0
 11
23.55872105588637
 21
34.64103665333342
 31
0.0
  0
LINE
  5
240
330
1F
100
AcDbEntity
  8
0
100
AcDbLine
 10
53.50809916324769
 20
-9.870065134645136
 30
0.0
 11
52.92356226164255
 21
-10.21223251694173
 31
0.0
  0
LINE
  5
241
330
1F
100
AcDbEntity
  8
0
100
AcDbLine
 10
-26.7148257555305
 20
17.24783835559078
 30
0.0
 11
-26.39034546630112
 21
20.99756001978706
 31
0.0
  0
LINE
  5
242
330
1F
100
AcDbEntity
  8
0
100
AcDbLine
 10
-39.694711281233
 20
21.51668584272508
 30
0.0
 11
-39.84986527255314
 21
22.1378693004449
 31
0.0
  0
LINE
  5
243
330
1F
100
AcDbEntity
  8
0
100
AcDbLine
 10
-39.84986527255314
 20
22.1378693004449
 30
0.0
 11
-44.12020020443273
 21
39.23482823799702
 31
0.0
  0
LINE
  5
244
330
1F
100
AcDbEntity
  8
0
100
AcDbLine
 10
50.84746773338524
 20
6.457075562373399
 30
0.0
 11
56.86262199987419
 21
36.96218509784589
 31
0.0
  0
LINE
  5
245
330
1F
100
AcDbEntity
  8
0
100
AcDbLine
 10
50.22314707421681
 20
23.92963108233597
 30
0.0
 11
50.54553615125958
 21
25.61236639835312
 31
0.0
  0
LINE
  5
246
330
1F
100
AcDbEntity
  8
0
100
AcDbLine
 10
48.90505399060049
 20
-12.56452619089786
 30
0.0
 11
51.26595064826291
 21
-0.7484928441722563
 31
0.0
  0
LINE
  5
247
330
1F
100
AcDbEntity
  8
0
100
AcDbLine
 10
64.14044055773341
 20
4.657227045614559
 30
0.0
 11
60.10427091776002
 21
-3.640383294525769
 31
0.0
  0
LINE
  5
248
330
1F
100
AcDbEntity
  8
0
100
AcDbLine
 10
60.10427091776002
 20
-3.640383294525769
 30
0.0
 11
58.49352769330179
 21
-6.95177028436091
 31
0.0
  0
LINE
  5
249
330
1F
100
AcDbEntity
  8
0
100
AcDbLine
 10
37.97114747627228
 20
-11.74502697066082
 30
0.0
 11
38.14124592942148
 21
-11.65524530730542
 31
0.0
  0
LINE
  5
24A
330
1F
100
AcDbEntity
  8
0
100
AcDbLine
 10
-55.93878167195136
 20
-3.209250274868052
 30
0.0
 11
3.059440359779883
 21
-34.87003763990968
 31
0.0
  0
LINE
  5
24B
330
1F
100
AcDbEntity
  8
0
100
AcDbLine
 10
-55.17135192131352
 20
1.840890288473152
 30
0.0
 11
-54.03563016969633
 21
1.288712645674545
 31
0.0
  0
LINE
  5
24C
330
1F
100
AcDbEntity
  8
0
100
AcDbLine
 10
-54.03563016969633
 20
1.288712645674545
 30
0.0
 11
-50.14749201621503
 21
-0.6016649555359623
 31
0.0
  0
LINE
  5
24D
330
1F
100
AcDbEntity
  8
0
100
AcDbLine
 10
-50.14749201621503
 20
-0.6016649555359623
 30
0.0
 11
3.123293945605354
 21
-26.50143924491889
 31
0.0
  0
LINE
  5
24E
330
1F
100
AcDbEntity
  8
0
100
AcDbLine
 10
-44.12020020443273
 20
39.23482823799702
 30
0.0
 11
-26.63764817088487
 21
37.00115446933776
 31
0.0
  0
LINE
  5
24F
330
1F
100
AcDbEntity
  8
0
100
AcDbLine
 10
-58.26040311769253
 20
43.66463988308654
 30
0.0
 11
-54.3707391267966
 21
43.26468238968685
 31
0.0
  0
LINE
  5
250
330
1F
100
AcDbEntity
  8
0
100
AcDbLine
 10
-54.3707391267966
 20
43.26468238968685
 30
0.0
 11
-54.32901723572288
 21
43.26039230627276
 31
0.0
  0
LINE
  5
251
330
1F
100
AcDbEntity
  8
0
100
AcDbLine
 10
-54.32901723572288
 20
43.26039230627276
 30
0.0
 11
-51.70111776162445
 21
42.99017665550527
 31
0.0
  0
LINE
  5
252
330
1F
100
AcDbEntity
  8
0
100
AcDbLine
 10
-19.21438850761655
 20
39.64970538816718
 30
0.0
 11
-3.146529843489434
 21
37.99751628117838
 31
0.0
  0
LINE
  5
253
330
1F
100
AcDbEntity
  8
0
100
AcDbLine
 10
-3.146529843489434
 20
37.99751628117838
 30
0.0
 11
-2.98760594279704
 21
37.98117481695139
 31
0.0
  0
LINE
  5
254
330
1F
100
AcDbEntity
  8
0
100
AcDbLine
 10
-14.72258217759554
 20
29.87827619729508
 30
0.0
 11
-11.89135195349834
 21
29.40991984768245
 31
0.0
  0
LINE
  5
255
330
1F
100
AcDbEntity
  8
0
100
AcDbLine
 10
38.00091147967254
 20
21.15649058693661
 30
0.0
 11
38.58338567091249
 21
21.06013477537779
 31
0.0
  0
LINE
  5
256
330
1F
100
AcDbEntity
  8
0
100
AcDbLine
 10
38.58338567091249
 20
21.06013477537779
 30
0.0
 11
39.02738264801022
 21
20.98668656136021
 31
0.0
  0
LINE
  5
257
330
1F
100
AcDbEntity
  8
0
100
AcDbLine
 10
67.93137688952507
 20
16.20524239727879
 30
0.0
 11
70.91168292119592
 21
15.71222517747041
 31
0.0
  0
LINE
  5
258
330
1F
100
AcDbEntity
  8
0
100
AcDbLine
 10
60.79330450222614
 20
1.314314797240616
 30
0.0
 11
60.63728700964656
 21
0.1924252548526879
 31
0.0
  0
LINE
  5
259
330
1F
100
AcDbEntity
  8
0
100
AcDbLine
 10
-8.952014056883762
 20
27.32192123100693
 30
0.0
 11
-8.752580120355182
 21
17.00359951967286
 31
0.0
  0
LINE
  5
25A
330
1F
100
AcDbEntity
  8
0
100
AcDbLine
 10
3.02843596468628
 20
-38.9334481384758
 30
0.0
 11
3.022307898410348
 21
-39.73658746006527
 31
0.0
  0
LINE
  5
25B
330
1F
100
AcDbEntity
  8
0
100
AcDbLine
 10
3.022307898410348
 20
-39.73658746006527
 30
0.0
 11
2.990632691375816
 21
-43.88791401944521
 31
0.0
  0
LINE
  5
25C
330
1F
100
AcDbEntity
  8
0
100
AcDbLine
 10
-63.90865239835889
 20
16.28788205218183
 30
0.0
 11
-40.02116748686424
 21
7.121778422557205
 31
0.0
  0
LINE
  5
25D
330
1F
100
AcDbEntity
  8
0
100
AcDbLine
 10
-36.19286119039356
 20
5.65278106392323
 30
0.0
 11
-32.05370034215561
 21
4.064502623760723
 31
0.0
  0
LINE
  5
25E
330
1F
100
AcDbEntity
  8
0
100
AcDbLine
 10
-24.61180387103323
 20
16.67515710654075
 30
0.0
 11
-14.89082666971026
 21
14.02800378556076
 31
0.0
  0
LINE
  5
25F
330
1F
100
AcDbEntity
  8
0
100
AcDbLine
 10
-12.71157021085093
 20
13.43456283277759
 30
0.0
 11
-10.3328766745595
 21
12.7868124714939
 31
0.0
  0
LINE
  5
260
330
1F
100
AcDbEntity
  8
0
100
AcDbLine
 10
-6.907951738656391
 20
11.85415917641682
 30
0.0
 11
28.96005129002498
 21
2.0868177489138
 31
0.0
  0
LINE
  5
261
330
1F
100
AcDbEntity
  8
0
100
AcDbLine
 10
35.71726778804771
 20
-23.92560120970324
 30
0.0
 11
21.88182637523085
 21
-32.41883749652137
 31
0.0
  0
LINE
  5
262
330
1F
100
AcDbEntity
  8
0
100
AcDbLine
 10
58.49352769330179
 20
-6.95177028436091
 30
0.0
 11
56.68900635336887
 21
-8.008073729853713
 31
0.0
  0
LINE
  5
263
330
1F
100
AcDbEntity
  8
0
100
AcDbLine
 10
56.68900635336887
 20
-8.008073729853713
 30
0.0
 11
53.50809916324769
 21
-9.870065134645136
 31
0.0
  0
LINE
  5
264
330
1F
100
AcDbEntity
  8
0
100
AcDbLine
 10
47.66571914608323
 20
-9.678768153341819
 30
0.0
 11
50.03301889241421
 21
2.326699182290593
 31
0.0
  0
LINE
  5
265
330
1F
100
AcDbEntity
  8
0
100
AcDbLine
 10
47.03915575301728
 20
7.310536256852044
 30
0.0
 11
48.92382907557228
 21
17.147737901862
 31
0.0
  0
LINE
  5
266
330
1F
100
AcDbEntity
  8
0
100
AcDbLine
 10
48.92382907557228
 20
17.147737901862
 30
0.0
 11
49.33271059297311
 21
19.2819273592353
 31
0.0
  0
LINE
  5
267
330
1F
100
AcDbEntity
  8
0
100
AcDbLine
 10
49.33271059297311
 20
19.2819273592353
 30
0.0
 11
49.83388817730311
 21
21.8978634464132
 31
0.0
  0
LINE
  5
268
330
1F
100
AcDbEntity
  8
0
100
AcDbLine
 10
50.54553615125958
 20
25.61236639835312
 30
0.0
 11
52.19260904350641
 21
34.20939378296966
 31
0.0
  0
LINE
  5
269
330
1F
100
AcDbEntity
  8
0
100
AcDbLine
 10
52.19260904350641
 20
34.20939378296966
 30
0.0
 11
52.58531274111066
 21
36.25914182887342
 31
0.0
  0
LINE
  5
26A
330
1F
100
AcDbEntity
  8
0
100
AcDbLine
 10
38.0831843963295
 20
-18.89926875455582
 30
0.0
 11
38.08200482266331
 21
-18.76933323166332
 31
0.0
  0
LINE
  5
26B
330
1F
100
AcDbEntity
  8
0
100
AcDbLine
 10
38.08200482266331
 20
-18.76933323166332
 30
0.0
 11
38.02239567404779
 21
-15.01753747601645
 31
0.0
  0
LINE
  5
26C
330
1F
100
AcDbEntity
  8
0
100
AcDbLine
 10
38.02239567404779
 20
-15.01753747601645
 30
0.0
 11
37.97114747627228
 21
-11.74502697066082
 31
0.0
  0
LINE
  5
26D
330
1F
100
AcDbEntity
  8
0
100
AcDbLine
 10
31.51552981812075
 20
-9.481465056678644
 30
0.0
 11
31.44646755899027
 21
-7.62328240404041
 31
0.0
  0
LINE
  5
26E
330
1F
100
AcDbEntity
  8
0
100
AcDbLine
 10
31.44646755899027
 20
-7.62328240404041
 30
0.0
 11
30.99717998115109
 21
4.465206934389768
 31
0.0
  0
LINE
  5
26F
330
1F
100
AcDbEntity
  8
0
100
AcDbLine
 10
-61.61567496129757
 20
4.974061860281394
 30
0.0
 11
-55.17135192131352
 21
1.840890288473152
 31
0.0
  0
LINE
  5
270
330
1F
100
AcDbEntity
  8
0
100
AcDbLine
 10
-47.83130480081964
 20
39.70898080873118
 30
0.0
 11
-47.06570963587469
 21
39.61116386335224
 31
0.0
  0
LINE
  5
271
330
1F
100
AcDbEntity
  8
0
100
AcDbLine
 10
-47.06570963587469
 20
39.61116386335224
 30
0.0
 11
-44.12020020443273
 21
39.23482823799702
 31
0.0
  0
LINE
  5
272
330
1F
100
AcDbEntity
  8
0
100
AcDbLine
 10
-51.70111776162445
 20
42.99017665550527
 30
0.0
 11
-51.13253013437255
 21
42.93171122437651
 31
0.0
  0
LINE
  5
273
330
1F
100
AcDbEntity
  8
0
100
AcDbLine
 10
-2.98760594279704
 20
37.98117481695139
 30
0.0
 11
-0.5794561889193922
 21
37.73355508898868
 31
0.0
  0
LINE
  5
274
330
1F
100
AcDbEntity
  8
0
100
AcDbLine
 10
62.65941292886648
 20
14.73311479328065
 30
0.0
 11
60.79330450222614
 21
1.314314797240616
 31
0.0
  0
LINE
  5
275
330
1F
100
AcDbEntity
  8
0
100
AcDbLine
 10
11.27145924887274
 20
-9.276049777032329
 30
0.0
 11
10.91466336991417
 21
-22.77877923753342
 31
0.0
  0
LINE
  5
276
330
1F
100
AcDbEntity
  8
0
100
AcDbLine
 10
10.73440131059697
 20
-29.6006904828584
 30
0.0
 11
10.72806060612103
 21
-29.84065070150662
 31
0.0
  0
LINE
  5
277
330
1F
100
AcDbEntity
  8
0
100
AcDbLine
 10
10.72806060612103
 20
-29.84065070150662
 30
0.0
 11
10.59195010616728
 21
-34.99167224069445
 31
0.0
  0
LINE
  5
278
330
1F
100
AcDbEntity
  8
0
100
AcDbLine
 10
3.253143706295681
 20
-9.483436499263956
 30
0.0
 11
3.123293945605354
 21
-26.50143924491889
 31
0.0
  0
LINE
  5
279
330
1F
100
AcDbEntity
  8
0
100
AcDbLine
 10
3.123293945605354
 20
-26.50143924491889
 30
0.0
 11
3.095117163684204
 21
-30.19426508883125
 31
0.0
  0
LINE
  5
27A
330
1F
100
AcDbEntity
  8
0
100
AcDbLine
 10
-79.52168434451771
 20
22.27891331065756
 30
0.0
 11
-68.722747991043
 21
18.135146393696
 31
0.0
  0
LINE
  5
27B
330
1F
100
AcDbEntity
  8
0
100
AcDbLine
 10
-40.02116748686424
 20
7.121778422557205
 30
0.0
 11
-38.53739347454916
 21
6.552424787789262
 31
0.0
  0
LINE
  5
27C
330
1F
100
AcDbEntity
  8
0
100
AcDbLine
 10
-38.53739347454916
 20
6.552424787789262
 30
0.0
 11
-36.19286119039356
 21
5.65278106392323
 31
0.0
  0
LINE
  5
27D
330
1F
100
AcDbEntity
  8
0
100
AcDbLine
 10
-26.7148257555305
 20
17.24783835559078
 30
0.0
 11
-24.61180387103323
 21
16.67515710654075
 31
0.0
  0
LINE
  5
27E
330
1F
100
AcDbEntity
  8
0
100
AcDbLine
 10
-14.89082666971026
 20
14.02800378556076
 30
0.0
 11
-14.5996259350729
 21
13.94870589443289
 31
0.0
  0
LINE
  5
27F
330
1F
100
AcDbEntity
  8
0
100
AcDbLine
 10
-14.5996259350729
 20
13.94870589443289
 30
0.0
 11
-12.71157021085093
 21
13.43456283277759
 31
0.0
  0
LINE
  5
280
330
1F
100
AcDbEntity
  8
0
100
AcDbLine
 10
-8.76762713692328
 20
12.3605738921922
 30
0.0
 11
-8.662284634007728
 21
12.33188770656929
 31
0.0
  0
LINE
  5
281
330
1F
100
AcDbEntity
  8
0
100
AcDbLine
 10
-8.662284634007728
 20
12.33188770656929
 30
0.0
 11
-6.907951738656391
 21
11.85415917641682
 31
0.0
  0
LINE
  5
282
330
1F
100
AcDbEntity
  8
0
100
AcDbLine
 10
49.83388817730311
 20
21.8978634464132
 30
0.0
 11
50.19924649371937
 21
23.80488010986116
 31
0.0
  0
LINE
  5
283
330
1F
100
AcDbEntity
  8
0
100
AcDbLine
 10
50.19924649371937
 20
23.80488010986116
 30
0.0
 11
50.22314707421681
 21
23.92963108233597
 31
0.0
  0
LINE
  5
284
330
1F
100
AcDbEntity
  8
0
100
AcDbLine
 10
51.26595064826291
 20
-0.7484928441722563
 30
0.0
 11
51.87796207902412
 21
2.314558412637769
 31
0.0
  0
LINE
  5
285
330
1F
100
AcDbEntity
  8
0
100
AcDbLine
 10
51.87796207902412
 20
2.314558412637769
 30
0.0
 11
52.090396529374
 21
3.377769943384386
 31
0.0
  0
LINE
  5
286
330
1F
100
AcDbEntity
  8
0
100
AcDbLine
 10
31.99794760744667
 20
-22.46135275128783
 30
0.0
 11
31.65939248136009
 21
-13.35222035138532
 31
0.0
  0
LINE
  5
287
330
1F
100
AcDbEntity
  8
0
100
AcDbLine
 10
31.65939248136009
 20
-13.35222035138532
 30
0.0
 11
31.51552981812075
 21
-9.481465056678644
 31
0.0
  0
LINE
  5
288
330
1F
100
AcDbEntity
  8
0
100
AcDbLine
 10
-61.58066727059312
 20
-0.1815905569122123
 30
0.0
 11
-61.10052675345987
 21
-0.4392530134201547
 31
0.0
  0
LINE
  5
289
330
1F
100
AcDbEntity
  8
0
100
AcDbLine
 10
-61.10052675345987
 20
-0.4392530134201547
 30
0.0
 11
-58.03353408528559
 21
-2.085122996840705
 31
0.0
  0
LINE
  5
28A
330
1F
100
AcDbEntity
  8
0
100
AcDbLine
 10
-56.63478106050415
 20
-2.835749381310316
 30
0.0
 11
-55.93878167195136
 21
-3.209250274868052
 31
0.0
  0
LINE
  5
28B
330
1F
100
AcDbEntity
  8
0
100
AcDbLine
 10
-62.36062225507929
 20
5.336248496316028
 30
0.0
 11
-61.86806380893773
 21
5.096771035094818
 31
0.0
  0
LINE
  5
28C
330
1F
100
AcDbEntity
  8
0
100
AcDbLine
 10
-61.86806380893773
 20
5.096771035094818
 30
0.0
 11
-61.61567496129757
 21
4.974061860281394
 31
0.0
  0
LINE
  5
28D
330
1F
100
AcDbEntity
  8
0
100
AcDbLine
 10
-51.13253013437255
 20
42.93171122437651
 30
0.0
 11
-49.15665483460711
 21
42.72854042761509
 31
0.0
  0
LINE
  5
28E
330
1F
100
AcDbEntity
  8
0
100
AcDbLine
 10
-49.15665483460711
 20
42.72854042761509
 30
0.0
 11
-48.12434067339529
 21
42.62239198258599
 31
0.0
  0
LINE
  5
28F
330
1F
100
AcDbEntity
  8
0
100
AcDbLine
 10
-38.56588888061036
 20
41.63953731216406
 30
0.0
 11
-36.68753791858216
 21
41.44639452547192
 31
0.0
  0
LINE
  5
290
330
1F
100
AcDbEntity
  8
0
100
AcDbLine
 10
-11.89135195349834
 20
29.40991984768245
 30
0.0
 11
-11.44503323298412
 21
29.33608755918656
 31
0.0
  0
LINE
  5
291
330
1F
100
AcDbEntity
  8
0
100
AcDbLine
 10
-11.44503323298412
 20
29.33608755918656
 30
0.0
 11
-10.92547568814169
 21
29.25013973585343
 31
0.0
  0
LINE
  5
292
330
1F
100
AcDbEntity
  8
0
100
AcDbLine
 10
-10.92547568814169
 20
29.25013973585343
 30
0.0
 11
-10.60225425379359
 21
29.19667081982556
 31
0.0
  0
LINE
  5
293
330
1F
100
AcDbEntity
  8
0
100
AcDbLine
 10
65.87751371405258
 20
16.54500277821879
 30
0.0
 11
66.27661853591505
 21
16.47898085040474
 31
0.0
  0
LINE
  5
294
330
1F
100
AcDbEntity
  8
0
100
AcDbLine
 10
66.27661853591505
 20
16.47898085040474
 30
0.0
 11
66.5498201149163
 21
16.43378647053397
 31
0.0
  0
LINE
  5
295
330
1F
100
AcDbEntity
  8
0
100
AcDbLine
 10
66.5498201149163
 20
16.43378647053397
 30
0.0
 11
67.93137688952507
 21
16.20524239727879
 31
0.0
  0
LINE
  5
296
330
1F
100
AcDbEntity
  8
0
100
AcDbLine
 10
-68.722747991043
 20
18.135146393696
 30
0.0
 11
-67.38483851666393
 21
17.62176388671997
 31
0.0
  0
LINE
  5
297
330
1F
100
AcDbEntity
  8
0
100
AcDbLine
 10
-67.38483851666393
 20
17.62176388671997
 30
0.0
 11
-63.90865239835889
 21
16.28788205218183
 31
0.0
  0
LINE
  5
298
330
1F
100
AcDbEntity
  8
0
100
AcDbLine
 10
46.1150803885639
 20
-17.54264047522104
 30
0.0
 11
38.13862034267929
 21
-22.43919258951092
 31
0.0
  0
LINE
  5
299
330
1F
100
AcDbEntity
  8
0
100
AcDbLine
 10
56.03083310912619
 20
23.09923037914493
 30
0.0
 11
56.37581731534809
 21
24.82583915364669
 31
0.0
  0
LINE
  5
29A
330
1F
100
AcDbEntity
  8
0
100
AcDbLine
 10
56.37581731534809
 20
24.82583915364669
 30
0.0
 11
58.86652406509864
 21
37.29155802213218
 31
0.0
  0
LINE
  5
29B
330
1F
100
AcDbEntity
  8
0
100
AcDbLine
 10
37.97114747627228
 20
-11.74502697066082
 30
0.0
 11
37.96885576402541
 21
-11.59868714353183
 31
0.0
  0
LINE
  5
29C
330
1F
100
AcDbEntity
  8
0
100
AcDbLine
 10
37.96885576402541
 20
-11.59868714353183
 30
0.0
 11
37.93900005514534
 21
-9.692217741761986
 31
0.0
  0
LINE
  5
29D
330
1F
100
AcDbEntity
  8
0
100
AcDbLine
 10
37.93900005514534
 20
-9.692217741761986
 30
0.0
 11
37.83860292671044
 21
-3.281247760926698
 31
0.0
  0
LINE
  5
29E
330
1F
100
AcDbEntity
  8
0
100
AcDbLine
 10
30.16717304433498
 20
26.79729555963151
 30
0.0
 11
30.1087445249011
 21
28.36936781151432
 31
0.0
  0
LINE
  5
29F
330
1F
100
AcDbEntity
  8
0
100
AcDbLine
 10
30.1087445249011
 20
28.36936781151432
 30
0.0
 11
30.04822366231839
 21
29.99773645149372
 31
0.0
  0
LINE
  5
2A0
330
1F
100
AcDbEntity
  8
0
100
AcDbLine
 10
-58.03353408528559
 20
-2.085122996840705
 30
0.0
 11
-57.53039478754932
 21
-2.355492210618097
 31
0.0
  0
LINE
  5
2A1
330
1F
100
AcDbEntity
  8
0
100
AcDbLine
 10
-48.12434067339529
 20
42.62239198258599
 30
0.0
 11
-40.66488191474887
 21
41.85536777838489
 31
0.0
  0
LINE
  5
2A2
330
1F
100
AcDbEntity
  8
0
100
AcDbLine
 10
-40.66488191474887
 20
41.85536777838489
 30
0.0
 11
-40.60138322735234
 21
41.84883848024893
 31
0.0
  0
LINE
  5
2A3
330
1F
100
AcDbEntity
  8
0
100
AcDbLine
 10
-40.60138322735234
 20
41.84883848024893
 30
0.0
 11
-39.19490113358883
 21
41.7042159488298
 31
0.0
  0
LINE
  5
2A4
330
1F
100
AcDbEntity
  8
0
100
AcDbLine
 10
-39.19490113358883
 20
41.7042159488298
 30
0.0
 11
-38.56588888061036
 21
41.63953731216406
 31
0.0
  0
LINE
  5
2A5
330
1F
100
AcDbEntity
  8
0
100
AcDbLine
 10
-0.5794561889193922
 20
37.73355508898868
 30
0.0
 11
0.2381646795452936
 21
37.64948263597788
 31
0.0
  0
LINE
  5
2A6
330
1F
100
AcDbEntity
  8
0
100
AcDbLine
 10
23.3227484563696
 20
35.27579372990164
 30
0.0
 11
23.58913424430153
 21
35.2484024199407
 31
0.0
  0
LINE
  5
2A7
330
1F
100
AcDbEntity
  8
0
100
AcDbLine
 10
-10.60225425379359
 20
29.19667081982556
 30
0.0
 11
-8.983072370290213
 21
28.9288176053953
 31
0.0
  0
LINE
  5
2A8
330
1F
100
AcDbEntity
  8
0
100
AcDbLine
 10
58.83770860955636
 20
17.70956276089473
 30
0.0
 11
65.22260653308375
 21
16.65334081940068
 31
0.0
  0
LINE
  5
2A9
330
1F
100
AcDbEntity
  8
0
100
AcDbLine
 10
65.22260653308375
 20
16.65334081940068
 30
0.0
 11
65.87751371405258
 21
16.54500277821879
 31
0.0
  0
LINE
  5
2AA
330
1F
100
AcDbEntity
  8
0
100
AcDbLine
 10
-42.39830277113861
 20
21.5186608672134
 30
0.0
 11
-39.49793247599091
 21
20.72885088207867
 31
0.0
  0
LINE
  5
2AB
330
1F
100
AcDbEntity
  8
0
100
AcDbLine
 10
-39.49793247599091
 20
20.72885088207867
 30
0.0
 11
-34.94424821734226
 21
19.48882118564696
 31
0.0
  0
LINE
  5
2AC
330
1F
100
AcDbEntity
  8
0
100
AcDbLine
 10
52.090396529374
 20
3.377769943384386
 30
0.0
 11
54.64089042441135
 21
16.14271703099648
 31
0.0
  0
LINE
  5
2AD
330
1F
100
AcDbEntity
  8
0
100
AcDbLine
 10
54.64089042441135
 20
16.14271703099648
 30
0.0
 11
55.07821455659953
 21
18.33147718383599
 31
0.0
  0
LINE
  5
2AE
330
1F
100
AcDbEntity
  8
0
100
AcDbLine
 10
55.07821455659953
 20
18.33147718383599
 30
0.0
 11
55.61435026472054
 21
21.0147786256705
 31
0.0
  0
LINE
  5
2AF
330
1F
100
AcDbEntity
  8
0
100
AcDbLine
 10
30.4048175296884
 20
20.40325537417185
 30
0.0
 11
30.32965735222648
 21
22.42550804426018
 31
0.0
  0
LINE
  5
2B0
330
1F
100
AcDbEntity
  8
0
100
AcDbLine
 10
30.32965735222648
 20
22.42550804426018
 30
0.0
 11
30.23800346003725
 21
24.89153905247064
 31
0.0
  0
LINE
  5
2B1
330
1F
100
AcDbEntity
  8
0
100
AcDbLine
 10
-57.53039478754932
 20
-2.355492210618097
 30
0.0
 11
-57.14736835002158
 21
-2.561040716867286
 31
0.0
  0
LINE
  5
2B2
330
1F
100
AcDbEntity
  8
0
100
AcDbLine
 10
-57.14736835002158
 20
-2.561040716867286
 30
0.0
 11
-56.63478106050415
 21
-2.835749381310316
 31
0.0
  0
LINE
  5
2B3
330
1F
100
AcDbEntity
  8
0
100
AcDbLine
 10
-36.68753791858216
 20
41.44639452547192
 30
0.0
 11
-25.1630602171787
 21
40.26138182900703
 31
0.0
  0
LINE
  5
2B4
330
1F
100
AcDbEntity
  8
0
100
AcDbLine
 10
-22.05818360958566
 20
39.94212066192554
 30
0.0
 11
-21.34335842572005
 21
39.86861824901094
 31
0.0
  0
LINE
  5
2B5
330
1F
100
AcDbEntity
  8
0
100
AcDbLine
 10
-21.34335842572005
 20
39.86861824901094
 30
0.0
 11
-19.21438850761655
 21
39.64970538816718
 31
0.0
  0
LINE
  5
2B6
330
1F
100
AcDbEntity
  8
0
100
AcDbLine
 10
0.2381646795452936
 20
37.64948263597788
 30
0.0
 11
2.194491519173877
 21
37.44832192366962
 31
0.0
  0
LINE
  5
2B7
330
1F
100
AcDbEntity
  8
0
100
AcDbLine
 10
2.194491519173877
 20
37.44832192366962
 30
0.0
 11
23.3227484563696
 21
35.27579372990164
 31
0.0
  0
LINE
  5
2B8
330
1F
100
AcDbEntity
  8
0
100
AcDbLine
 10
-8.983072370290213
 20
28.9288176053953
 30
0.0
 11
-0.4430481711569011
 21
27.51608383141015
 31
0.0
  0
LINE
  5
2B9
330
1F
100
AcDbEntity
  8
0
100
AcDbLine
 10
-62.13875216982616
 20
26.89425172615105
 30
0.0
 11
-43.90377373701635
 21
21.92862093443996
 31
0.0
  0
LINE
  5
2BA
330
1F
100
AcDbEntity
  8
0
100
AcDbLine
 10
-43.90377373701635
 20
21.92862093443996
 30
0.0
 11
-42.39830277113861
 21
21.5186608672134
 31
0.0
  0
LINE
  5
2BB
330
1F
100
AcDbEntity
  8
0
100
AcDbLine
 10
-34.94424821734226
 20
19.48882118564696
 30
0.0
 11
-28.26775866851554
 21
17.67072295173077
 31
0.0
  0
LINE
  5
2BC
330
1F
100
AcDbEntity
  8
0
100
AcDbLine
 10
-28.26775866851554
 20
17.67072295173077
 30
0.0
 11
-26.7148257555305
 21
17.24783835559078
 31
0.0
  0
LINE
  5
2BD
330
1F
100
AcDbEntity
  8
0
100
AcDbLine
 10
57.48129031824309
 20
-10.56520450206037
 30
0.0
 11
48.16139520451264
 21
-16.28645827398178
 31
0.0
  0
LINE
  5
2BE
330
1F
100
AcDbEntity
  8
0
100
AcDbLine
 10
55.61435026472054
 20
21.0147786256705
 30
0.0
 11
56.00525914874483
 21
22.97123546344484
 31
0.0
  0
LINE
  5
2BF
330
1F
100
AcDbEntity
  8
0
100
AcDbLine
 10
56.00525914874483
 20
22.97123546344484
 30
0.0
 11
56.03083310912619
 21
23.09923037914493
 31
0.0
  0
LINE
  5
2C0
330
1F
100
AcDbEntity
  8
0
100
AcDbLine
 10
37.77342547120104
 20
0.8807309451568299
 30
0.0
 11
37.73179825472137
 21
3.538883019794363
 31
0.0
  0
LINE
  5
2C1
330
1F
100
AcDbEntity
  8
0
100
AcDbLine
 10
30.85042597671753
 20
8.413756383495832
 30
0.0
 11
30.4048175296884
 21
20.40325537417185
 31
0.0
  0
LINE
  5
2C2
330
1F
100
AcDbEntity
  8
0
100
AcDbLine
 10
30.23800346003725
 20
24.89153905247064
 30
0.0
 11
30.17151311916352
 21
26.68052191424141
 31
0.0
  0
LINE
  5
2C3
330
1F
100
AcDbEntity
  8
0
100
AcDbLine
 10
30.17151311916352
 20
26.68052191424141
 30
0.0
 11
30.16717304433498
 21
26.79729555963151
 31
0.0
  0
LINE
  5
2C4
330
1F
100
AcDbEntity
  8
0
100
AcDbLine
 10
-25.1630602171787
 20
40.26138182900703
 30
0.0
 11
-25.07011071021348
 21
40.25182422919749
 31
0.0
  0
LINE
  5
2C5
330
1F
100
AcDbEntity
  8
0
100
AcDbLine
 10
-25.07011071021348
 20
40.25182422919749
 30
0.0
 11
-22.05818360958566
 21
39.94212066192554
 31
0.0
  0
LINE
  5
2C6
330
1F
100
AcDbEntity
  8
0
100
AcDbLine
 10
32.41950058415254
 20
34.34041365912376
 30
0.0
 11
34.43767249963314
 21
34.13289368247423
 31
0.0
  0
LINE
  5
2C7
330
1F
100
AcDbEntity
  8
0
100
AcDbLine
 10
34.43767249963314
 20
34.13289368247423
 30
0.0
 11
37.25722991504141
 21
33.84297066624385
 31
0.0
  0
LINE
  5
2C8
330
1F
100
AcDbEntity
  8
0
100
AcDbLine
 10
37.25722991504141
 20
33.84297066624385
 30
0.0
 11
37.64362362496391
 21
33.80323945551518
 31
0.0
  0
LINE
  5
2C9
330
1F
100
AcDbEntity
  8
0
100
AcDbLine
 10
-0.4430481711569011
 20
27.51608383141015
 30
0.0
 11
-0.3446833174906719
 21
27.49981182237281
 31
0.0
  0
LINE
  5
2CA
330
1F
100
AcDbEntity
  8
0
100
AcDbLine
 10
63.08303508669457
 20
-7.126431533614923
 30
0.0
 11
59.79539293847363
 21
-9.144633971701005
 31
0.0
  0
LINE
  5
2CB
330
1F
100
AcDbEntity
  8
0
100
AcDbLine
 10
30.99717998115109
 20
4.465206934389768
 30
0.0
 11
30.88811135561646
 21
7.399797121088929
 31
0.0
  0
LINE
  5
2CC
330
1F
100
AcDbEntity
  8
0
100
AcDbLine
 10
30.88811135561646
 20
7.399797121088929
 30
0.0
 11
30.85042597671753
 21
8.413756383495832
 31
0.0
  0
LINE
  5
2CD
330
1F
100
AcDbEntity
  8
0
100
AcDbLine
 10
23.58913424430153
 20
35.2484024199407
 30
0.0
 11
31.4456098030159
 21
34.44055467813727
 31
0.0
  0
LINE
  5
2CE
330
1F
100
AcDbEntity
  8
0
100
AcDbLine
 10
31.4456098030159
 20
34.44055467813727
 30
0.0
 11
32.41950058415254
 21
34.34041365912376
 31
0.0
  0
LINE
  5
2CF
330
1F
100
AcDbEntity
  8
0
100
AcDbLine
 10
37.73179825472137
 20
3.538883019794363
 30
0.0
 11
37.69716923115377
 21
5.750157724742374
 31
0.0
  0
LINE
  5
2D0
330
1F
100
AcDbEntity
  8
0
100
AcDbLine
 10
37.69716923115377
 20
5.750157724742374
 30
0.0
 11
37.68081815542244
 21
6.794273799594647
 31
0.0
  0
LINE
  5
2D1
330
1F
100
AcDbEntity
  8
0
100
AcDbLine
 10
2.069226594460965
 20
27.10049069863201
 30
0.0
 11
15.83531105369599
 21
24.82323574037709
 31
0.0
  0
LINE
  5
2D2
330
1F
100
AcDbEntity
  8
0
100
AcDbLine
 10
18.69232863624561
 20
24.35061351617463
 30
0.0
 11
30.32965735222648
 21
22.42550804426018
 31
0.0
  0
LINE
  5
2D3
330
1F
100
AcDbEntity
  8
0
100
AcDbLine
 10
37.3837255623273
 20
25.76545081982726
 30
0.0
 11
37.35826317191968
 21
27.3913799981635
 31
0.0
  0
LINE
  5
2D4
330
1F
100
AcDbEntity
  8
0
100
AcDbLine
 10
37.35826317191968
 20
27.3913799981635
 30
0.0
 11
37.25722991504141
 21
33.84297066624385
 31
0.0
  0
LINE
  5
2D5
330
1F
100
AcDbEntity
  8
0
100
AcDbLine
 10
1.581665113726022
 20
27.18114557204541
 30
0.0
 11
2.069226594460965
 21
27.10049069863201
 31
0.0
  0
LINE
  5
2D6
330
1F
100
AcDbEntity
  8
0
100
AcDbLine
 10
37.68081815542244
 20
6.794273799594647
 30
0.0
 11
37.48719616202916
 21
19.15822092263148
 31
0.0
  0
LINE
  5
2D7
330
1F
100
AcDbEntity
  8
0
100
AcDbLine
 10
37.45448728051231
 20
21.24688282741232
 30
0.0
 11
37.41458058917979
 21
23.79516886064287
 31
0.0
  0
LINE
  5
2D8
330
1F
100
AcDbEntity
  8
0
100
AcDbLine
 10
-0.3446833174906719
 20
27.49981182237281
 30
0.0
 11
1.099519304256739
 21
27.26090455786793
 31
0.0
  0
LINE
  5
2D9
330
1F
100
AcDbEntity
  8
0
100
AcDbLine
 10
1.099519304256739
 20
27.26090455786793
 30
0.0
 11
1.581665113726022
 21
27.18114557204541
 31
0.0
  0
LINE
  5
2DA
330
1F
100
AcDbEntity
  8
0
100
AcDbLine
 10
15.83531105369599
 20
24.82323574037709
 30
0.0
 11
15.97055442286033
 21
24.80086310174389
 31
0.0
  0
LINE
  5
2DB
330
1F
100
AcDbEntity
  8
0
100
AcDbLine
 10
15.97055442286033
 20
24.80086310174389
 30
0.0
 11
17.71901699678157
 21
24.51162362500116
 31
0.0
  0
LINE
  5
2DC
330
1F
100
AcDbEntity
  8
0
100
AcDbLine
 10
17.71901699678157
 20
24.51162362500116
 30
0.0
 11
18.24649751259638
 21
24.42436514394366
 31
0.0
  0
LINE
  5
2DD
330
1F
100
AcDbEntity
  8
0
100
AcDbLine
 10
18.24649751259638
 20
24.42436514394366
 30
0.0
 11
18.69232863624561
 21
24.35061351617463
 31
0.0
  0
LINE
  5
2DE
330
1F
100
AcDbEntity
  8
0
100
AcDbLine
 10
37.48719616202916
 20
19.15822092263148
 30
0.0
 11
37.45915199452251
 21
20.94901234092654
 31
0.0
  0
LINE
  5
2DF
330
1F
100
AcDbEntity
  8
0
100
AcDbLine
 10
37.45915199452251
 20
20.94901234092654
 30
0.0
 11
37.45448728051231
 21
21.24688282741232
 31
0.0
  0
LINE
  5
2E0
330
1F
100
AcDbEntity
  8
0
100
AcDbLine
 10
37.41458058917979
 20
23.79516886064287
 30
0.0
 11
37.38561655499424
 21
25.64469938588911
 31
0.0
  0
LINE
  5
2E1
330
1F
100
AcDbEntity
  8
0
100
AcDbLine
 10
37.38561655499424
 20
25.64469938588911
 30
0.0
 11
37.3837255623273
 21
25.76545081982726
 31
0.0
  0
ENDSEC
  0
SECTION
  2
OBJECTS
  0
DICTIONARY
  5
C
330
0
100
AcDbDictionary
  3
ACAD_GROUP
350
D
  3
ACAD_LAYOUT
350
1A
  3
ACAD_MATERIAL
350
43
  3
ACAD_MLEADERSTYLE
350
6B
  3
ACAD_MLINESTYLE
350
17
  3
ACAD_PLOTSETTINGS
350
19
  3
ACAD_SCALELIST
350
47
  3
ACAD_VISUALSTYLE
350
2A
  3
ACDBHEADERROUNDTRIPXREC
350
2E2
  3
ACDBVARIABLEDICTIONARY
350
303
  0
DICTIONARY
  5
30A
330
8
100
AcDbDictionary
280
     1
  3
ACAD_XREC_ROUNDTRIP
360
30B
  0
DICTIONARY
  5
D
102
{ACAD_REACTORS
330
C
102
}
330
C
100
AcDbDictionary
  0
DICTIONARY
  5
1A
102
{ACAD_REACTORS
330
C
102
}
330
C
100
AcDbDictionary
  0
DICTIONARY
  5
43
102
{ACAD_REACTORS
330
C
102
}
330
C
100
AcDbDictionary
  3
BYBLOCK
350
45
  3
BYLAYER
350
44
  3
GLOBAL
350
46
  0
DICTIONARY
  5
6B
102
{ACAD_REACTORS
330
C
102
}
330
C
100
AcDbDictionary
  3
STANDARD
350
6C
  0
DICTIONARY
  5
17
102
{ACAD_REACTORS
330
C
102
}
330
C
100
AcDbDictionary
  3
STANDARD
350
18
  0
DICTIONARY
  5
19
102
{ACAD_REACTORS
330
C
102
}
330
C
100
AcDbDictionary
  0
DICTIONARY
  5
47
102
{ACAD_REACTORS
330
C
102
}
330
C
100
AcDbDictionary
  3
A0
350
48
  3
A1
350
49
  3
A2
350
4A
  3
A3
350
4B
  3
A4
350
4C
  3
A5
350
4D
  3
A6
350
4E
  3
A7
350
4F
  3
A8
350
50
  3
A9
350
51
  3
B0
350
52
  3
B1
350
53
  3
B2
350
54
  3
B3
350
55
  3
B4
350
56
  3
B5
350
57
  3
B6
350
58
  3
B7
350
59
  3
B8
350
5A
  3
B9
350
5B
  3
C0
350
5C
  3
C1
350
5D
  3
C2
350
5E
  3
C3
350
5F
  3
C4
350
60
  3
C5
350
61
  3
C6
350
62
  3
C7
350
63
  3
C8
350
64
  3
C9
350
65
  3
D0
350
66
  3
D1
350
67
  3
D2
350
68
  0
DICTIONARY
  5
2A
102
{ACAD_REACTORS
330
C
102
}
330
C
100
AcDbDictionary
  3
2DWIREFRAME
350
2F
  3
BASIC
350
32
  3
BRIGHTEN
350
36
  3
COLORCHANGE
350
3A
  3
CONCEPTUAL
350
34
  3
DIM
350
35
  3
EDGECOLOROFF
350
3D
  3
FACEPATTERN
350
39
  3
FLAT
350
2B
  3
FLATWITHEDGES
350
2C
  3
GOURAUD
350
2D
  3
GOURAUDWITHEDGES
350
2E
  3
HIDDEN
350
31
  3
JITTEROFF
350
3B
  3
LINEPATTERN
350
38
  3
OVERHANGOFF
350
3C
  3
REALISTIC
350
33
  3
SHADED
350
42
  3
SHADED_WITH_EDGES
350
41
  3
SHADES_OF_GRAY
350
3E
  3
SKETCHY
350
3F
  3
THICKEN
350
37
  3
WIREFRAME
350
30
  3
X-RAY
350
40
  0
DICTIONARY
  5
2E2
102
{ACAD_REACTORS
330
C
102
}
330
C
100
AcDbDictionary
  3
CEPSNID
350
2EC
  3
CEPSNTYPE
350
2EB
  3
DIMSTYLEDATA
350
302
  3
FINGERPRINTGUID
350
2ED
  3
HYPERLINKBASE
350
2E5
  3
INSUNITS
350
2EA
  3
LAYOUTDICT
350
2E7
  3
LWETCUNION
350
2E9
  3
PLOTSETDICT
350
2E8
  3
PSVPSCALE
350
2EF
  3
PUCSBASE
350
2F2
  3
PUCSORGBACK
350
2F8
  3
PUCSORGBOTTOM
350
2F4
  3
PUCSORGFRONT
350
2F7
  3
PUCSORGLEFT
350
2F5
  3
PUCSORGRIGHT
350
2F6
  3
PUCSORGTOP
350
2F3
  3
PUCSORTHOREF
350
2F0
  3
PUCSORTHOVIEW
350
2F1
  3
STYLESHEET
350
2E6
  3
TSTACKALIGN
350
2E3
  3
TSTACKSIZE
350
2E4
  3
UCSBASE
350
2FB
  3
UCSORGBACK
350
301
  3
UCSORGBOTTOM
350
2FD
  3
UCSORGFRONT
350
300
  3
UCSORGLEFT
350
2FE
  3
UCSORGRIGHT
350
2FF
  3
UCSORGTOP
350
2FC
  3
UCSORTHOREF
350
2F9
  3
UCSORTHOVIEW
350
2FA
  3
VERSIONGUID
350
2EE
  0
DICTIONARY
  5
303
102
{ACAD_REACTORS
330
C
102
}
330
C
100
AcDbDictionary
  3
CANNOSCALE
350
30C
  3
CMLEADERSTYLE
350
305
  3
CTABLESTYLE
350
304
  3
DIMASSOC
350
308
  3
HIDETEXT
350
309
  3
MSLTSCALE
350
30D
  0
XRECORD
  5
30B
102
{ACAD_REACTORS
330
30A
102
}
330
30A
100
AcDbXrecord
102
VTR_0.000_0.000_1.000_1.000_VISUALSTYLE
340
2F
102
VTR_0.000_0.000_1.000_1.000_GRIDDISPLAY
 70
     3
102
VTR_0.000_0.000_1.000_1.000_GRIDMAJOR
 70
     5
102
VTR_0.000_0.000_1.000_1.000_DEFAULTLIGHTING
280
     1
102
VTR_0.000_0.000_1.000_1.000_DEFAULTLIGHTINGTYPE
 70
     1
102
VTR_0.000_0.000_1.000_1.000_BRIGHTNESS
141
0.0
102
VTR_0.000_0.000_1.000_1.000_CONTRAST
142
0.0
  0
MATERIAL
  5
45
102
{ACAD_REACTORS
330
43
102
}
102
{ACAD_XDICTIONARY
360
310
102
}
330
43
100
AcDbMaterial
  1
BYBLOCK
  0
MATERIAL
  5
44
102
{ACAD_REACTORS
330
43
102
}
102
{ACAD_XDICTIONARY
360
30E
102
}
330
43
100
AcDbMaterial
  1
BYLAYER
  0
MATERIAL
  5
46
102
{ACAD_REACTORS
330
43
102
}
102
{ACAD_XDICTIONARY
360
312
102
}
330
43
100
AcDbMaterial
  1
GLOBAL
  0
ACAD_PROXY_OBJECT
  5
6C
102
{ACAD_REACTORS
330
6B
102
}
330
6B
100
AcDbProxyObject
 90
      499
 91
      505
 93
      610
310
40901902A4063FBFFFFFE056BD1B81E855B9FC0AD7A3703D0AD73F4214DD185B99185C9900AD7A3703D0AC73F90141901A02B5E8DC0F42B1CFC02B5E8DC0F42B1CFE5764000000000000300FC0
340
14
340
0
340
11
340
0
 94
        0
1001
ACAD_MLEADERVER
1070
     2
  0
MLINESTYLE
  5
18
102
{ACAD_REACTORS
330
17
102
}
330
17
100
AcDbMlineStyle
  2
Standard
 70
     0
  3

 62
   256
 51
90.0
 52
90.0
 71
     2
 49
0.5
 62
   256
  6
BYLAYER
 49
-0.5
 62
   256
  6
BYLAYER
  0
ACAD_PROXY_OBJECT
  5
48
102
{ACAD_REACTORS
330
47
102
}
330
47
100
AcDbProxyObject
 90
      499
 91
      503
 93
       41
310
903313A31580
  0
ACAD_PROXY_OBJECT
  5
49
102
{ACAD_REACTORS
330
47
102
}
330
47
100
AcDbProxyObject
 90
      499
 91
      503
 93
      105
310
903313A324000000000000004000
  0
ACAD_PROXY_OBJECT
  5
4A
102
{ACAD_REACTORS
330
47
102
}
330
47
100
AcDbProxyObject
 90
      499
 91
      503
 93
      105
310
903313A344000000000000104000
  0
ACAD_PROXY_OBJECT
  5
4B
102
{ACAD_REACTORS
330
47
102
}
330
47
100
AcDbProxyObject
 90
      499
 91
      503
 93
      105
310
903313A354000000000000144000
  0
ACAD_PROXY_OBJECT
  5
4C
102
{ACAD_REACTORS
330
47
102
}
330
47
100
AcDbProxyObject
 90
      499
 91
      503
 93
      105
310
903313A384000000000000204000
  0
ACAD_PROXY_OBJECT
  5
4D
102
{ACAD_REACTORS
330
47
102
}
330
47
100
AcDbProxyObject
 90
      499
 91
      503
 93
      113
310
904313A31304000000000000244000
  0
ACAD_PROXY_OBJECT
  5
4E
102
{ACAD_REACTORS
330
47
102
}
330
47
100
AcDbProxyObject
 90
      499
 91
      503
 93
      113
310
904313A31364000000000000304000
  0
ACAD_PROXY_OBJECT
  5
4F
102
{ACAD_REACTORS
330
47
102
}
330
47
100
AcDbProxyObject
 90
      499
 91
      503
 93
      113
310
904313A32304000000000000344000
  0
ACAD_PROXY_OBJECT
  5
50
102
{ACAD_REACTORS
330
47
102
}
330
47
100
AcDbProxyObject
 90
      499
 91
      503
 93
      113
310
904313A333040000000000003E4000
  0
ACAD_PROXY_OBJECT
  5
51
102
{ACAD_REACTORS
330
47
102
}
330
47
100
AcDbProxyObject
 90
      499
 91
      503
 93
      113
310
904313A34304000000000000444000
  0
ACAD_PROXY_OBJECT
  5
52
102
{ACAD_REACTORS
330
47
102
}
330
47
100
AcDbProxyObject
 90
      499
 91
      503
 93
      113
310
904313A35304000000000000494000
  0
ACAD_PROXY_OBJECT
  5
53
102
{ACAD_REACTORS
330
47
102
}
330
47
100
AcDbProxyObject
 90
      499
 91
      503
 93
      121
310
905313A3130304000000000000594000
  0
ACAD_PROXY_OBJECT
  5
54
102
{ACAD_REACTORS
330
47
102
}
330
47
100
AcDbProxyObject
 90
      499
 91
      503
 93
      105
310
903323A310000000000000010100
  0
ACAD_PROXY_OBJECT
  5
55
102
{ACAD_REACTORS
330
47
102
}
330
47
100
AcDbProxyObject
 90
      499
 91
      503
 93
      105
310
903343A310000000000000410100
  0
ACAD_PROXY_OBJECT
  5
56
102
{ACAD_REACTORS
330
47
102
}
330
47
100
AcDbProxyObject
 90
      499
 91
      503
 93
      105
310
903383A310000000000000810100
  0
ACAD_PROXY_OBJECT
  5
57
102
{ACAD_REACTORS
330
47
102
}
330
47
100
AcDbProxyObject
 90
      499
 91
      503
 93
      113
310
90431303A310000000000000910100
  0
ACAD_PROXY_OBJECT
  5
58
102
{ACAD_REACTORS
330
47
102
}
330
47
100
AcDbProxyObject
 90
      499
 91
      503
 93
      121
310
9053130303A310000000000001650100
  0
ACAD_PROXY_OBJECT
  5
59
102
{ACAD_REACTORS
330
47
102
}
330
47
100
AcDbProxyObject
 90
      499
 91
      503
 93
      257
310
90E312F31323822203D2031272D3022000000000000200FC000000000000284000
  0
ACAD_PROXY_OBJECT
  5
5A
102
{ACAD_REACTORS
330
47
102
}
330
47
100
AcDbProxyObject
 90
      499
 91
      503
 93
      249
310
90D312F363422203D2031272D3022000000000000240FC000000000000284000
  0
ACAD_PROXY_OBJECT
  5
5B
102
{ACAD_REACTORS
330
47
102
}
330
47
100
AcDbProxyObject
 90
      499
 91
      503
 93
      249
310
90D312F333222203D2031272D3022000000000000280FC000000000000284000
  0
ACAD_PROXY_OBJECT
  5
5C
102
{ACAD_REACTORS
330
47
102
}
330
47
100
AcDbProxyObject
 90
      499
 91
      503
 93
      249
310
90D312F313622203D2031272D30220000000000002C0FC000000000000284000
  0
ACAD_PROXY_OBJECT
  5
5D
102
{ACAD_REACTORS
330
47
102
}
330
47
100
AcDbProxyObject
 90
      499
 91
      503
 93
      249
310
90D332F333222203D2031272D30220000000000002E0FC000000000000284000
  0
ACAD_PROXY_OBJECT
  5
5E
102
{ACAD_REACTORS
330
47
102
}
330
47
100
AcDbProxyObject
 90
      499
 91
      503
 93
      241
310
90C312F3822203D2031272D3022000000000000300FC000000000000284000
  0
ACAD_PROXY_OBJECT
  5
5F
102
{ACAD_REACTORS
330
47
102
}
330
47
100
AcDbProxyObject
 90
      499
 91
      503
 93
      249
310
90D332F313622203D2031272D3022000000000000320FC000000000000284000
  0
ACAD_PROXY_OBJECT
  5
60
102
{ACAD_REACTORS
330
47
102
}
330
47
100
AcDbProxyObject
 90
      499
 91
      503
 93
      241
310
90C312F3422203D2031272D3022000000000000340FC000000000000284000
  0
ACAD_PROXY_OBJECT
  5
61
102
{ACAD_REACTORS
330
47
102
}
330
47
100
AcDbProxyObject
 90
      499
 91
      503
 93
      241
310
90C332F3822203D2031272D3022000000000000360FC000000000000284000
  0
ACAD_PROXY_OBJECT
  5
62
102
{ACAD_REACTORS
330
47
102
}
330
47
100
AcDbProxyObject
 90
      499
 91
      503
 93
      241
310
90C312F3222203D2031272D3022000000000000380FC000000000000284000
  0
ACAD_PROXY_OBJECT
  5
63
102
{ACAD_REACTORS
330
47
102
}
330
47
100
AcDbProxyObject
 90
      499
 91
      503
 93
      241
310
90C332F3422203D2031272D30220000000000003A0FC000000000000284000
  0
ACAD_PROXY_OBJECT
  5
64
102
{ACAD_REACTORS
330
47
102
}
330
47
100
AcDbProxyObject
 90
      499
 91
      503
 93
      161
310
90A3122203D2031272D30224000000000000284000
  0
ACAD_PROXY_OBJECT
  5
65
102
{ACAD_REACTORS
330
47
102
}
330
47
100
AcDbProxyObject
 90
      499
 91
      503
 93
      257
310
90E312D312F3222203D2031272D30220000000000003E0FC000000000000284000
  0
ACAD_PROXY_OBJECT
  5
66
102
{ACAD_REACTORS
330
47
102
}
330
47
100
AcDbProxyObject
 90
      499
 91
      503
 93
      225
310
90A3322203D2031272D302200000000000002100000000000000284000
  0
ACAD_PROXY_OBJECT
  5
67
102
{ACAD_REACTORS
330
47
102
}
330
47
100
AcDbProxyObject
 90
      499
 91
      503
 93
      225
310
90A3622203D2031272D302200000000000006100000000000000284000
  0
ACAD_PROXY_OBJECT
  5
68
102
{ACAD_REACTORS
330
47
102
}
330
47
100
AcDbProxyObject
 90
      499
 91
      503
 93
      249
310
90D31272D3022203D2031272D30220000000000000A100000000000000284000
  0
ACAD_PROXY_OBJECT
  5
2F
102
{ACAD_REACTORS
330
2A
102
}
330
2A
100
AcDbProxyObject
 90
      499
 91
      501
 93
      436
310
42CC9915DA5C99599C985B595049028333333333333E33F0000000000000F90107901411070040501600405405064090741402480A0340
1001
ACAD
1000
AcDbSavedByObjectVersion
1070
     0
  0
ACAD_PROXY_OBJECT
  5
32
102
{ACAD_REACTORS
330
2A
102
}
330
2A
100
AcDbProxyObject
 90
      499
 91
      501
 93
      388
310
4150985CDA58D07406404333333333333E33F0000000000000F90107A41107004050150841D405064090741402480A0350
1001
ACAD
1000
AcDbSavedByObjectVersion
1070
     0
  0
ACAD_PROXY_OBJECT
  5
36
102
{ACAD_REACTORS
330
2A
102
}
330
2A
100
AcDbProxyObject
 90
      499
 91
      501
 93
      428
310
42109C9A59DA1D195B90C409028333333333333E33F0000000000000F9010790141107004050150841D405064090741402480A029950
1001
ACAD
1000
AcDbSavedByObjectVersion
1070
     0
  0
ACAD_PROXY_OBJECT
  5
3A
102
{ACAD_REACTORS
330
2A
102
}
330
2A
100
AcDbProxyObject
 90
      499
 91
      501
 93
      452
310
42D0DBDB1BDC90DA185B99D95104090240C333333333333E33F0000000000000F90108901411070040501508421405064090741402480A0350
1001
ACAD
1000
AcDbSavedByObjectVersion
1070
     0
  0
ACAD_PROXY_OBJECT
  5
34
102
{ACAD_REACTORS
330
2A
102
}
330
2A
100
AcDbProxyObject
 90
      499
 91
      501
 93
      500
310
4290DBDB98D95C1D1D585B10940D028333333333333E33F0000000000000F90107902409070040501000000000018199010841D405064090740C02480A0340
1001
ACAD
1000
AcDbSavedByObjectVersion
1070
     0
  0
ACAD_PROXY_OBJECT
  5
35
102
{ACAD_REACTORS
330
2A
102
}
330
2A
100
AcDbProxyObject
 90
      499
 91
      501
 93
      412
310
40D11A5B50B409028333333333333E33F0000000000000F9010790141107004050150841D405064090741402480A02677FFFFFD0
1001
ACAD
1000
AcDbSavedByObjectVersion
1070
     0
  0
ACAD_PROXY_OBJECT
  5
3D
102
{ACAD_REACTORS
330
2A
102
}
330
2A
100
AcDbProxyObject
 90
      499
 91
      501
 93
      452
310
43115919D950DBDB1BDC93D999916409028333333333333E33F0000000000000F9010790141107004050150841D405064090741402480A0350
1001
ACAD
1000
AcDbSavedByObjectVersion
1070
     0
  0
ACAD_PROXY_OBJECT
  5
39
102
{ACAD_REACTORS
330
2A
102
}
330
2A
100
AcDbProxyObject
 90
      499
 91
      501
 93
      444
310
42D19858D95C185D1D195C9B90F409028333333333333E33F0000000000000F9010790141107004050150841D405064090741402480A0350
1001
ACAD
1000
AcDbSavedByObjectVersion
1070
     0
  0
ACAD_PROXY_OBJECT
  5
2B
102
{ACAD_REACTORS
330
2A
102
}
330
2A
100
AcDbProxyObject
 90
      499
 91
      501
 93
      380
310
41119B185D240901404333333333333E33F0000000000000F9010740A907004050150841D405064090741402480A1B50
1001
ACAD
1000
AcDbSavedByObjectVersion
1070
     0
  0
ACAD_PROXY_OBJECT
  5
2C
102
{ACAD_REACTORS
330
2A
102
}
330
2A
100
AcDbProxyObject
 90
      499
 91
      501
 93
      468
310
43519B185D15DA5D1A115919D95CD0140901404333333333333E33F0000000000000F90107409019070040501600405405064090741402480A1B50
1001
ACAD
1000
AcDbSavedByObjectVersion
1070
     0
  0
ACAD_PROXY_OBJECT
  5
2D
102
{ACAD_REACTORS
330
2A
102
}
330
2A
100
AcDbProxyObject
 90
      499
 91
      501
 93
      404
310
41D1DBDD5C985D5910240902404333333333333E33F0000000000000F9010740A9070040501641D405064090741402480A1B50
1001
ACAD
1000
AcDbSavedByObjectVersion
1070
     0
  0
ACAD_PROXY_OBJECT
  5
2E
102
{ACAD_REACTORS
330
2A
102
}
330
2A
100
AcDbProxyObject
 90
      499
 91
      501
 93
      492
310
4411DBDD5C985D5915DA5D1A115919D95CD0340902404333333333333E33F0000000000000F90107409019070040501600405405064090741402480A1B50
1001
ACAD
1000
AcDbSavedByObjectVersion
1070
     0
  0
ACAD_PROXY_OBJECT
  5
31
102
{ACAD_REACTORS
330
2A
102
}
330
2A
100
AcDbProxyObject
 90
      499
 91
      501
 93
      476
310
41921A5919195B90640502408333333333333E33F0000000000000F901079024090700405020000000000001110200405405064090740C02480A0340
1001
ACAD
1000
AcDbSavedByObjectVersion
1070
     0
  0
ACAD_PROXY_OBJECT
  5
3B
102
{ACAD_REACTORS
330
2A
102
}
330
2A
100
AcDbProxyObject
 90
      499
 91
      501
 93
      428
310
42529A5D1D195C93D999914409028333333333333E33F0000000000000F9010790141107004050150A41D405064090741402480A0350
1001
ACAD
1000
AcDbSavedByObjectVersion
1070
     0
  0
ACAD_PROXY_OBJECT
  5
38
102
{ACAD_REACTORS
330
2A
102
}
330
2A
100
AcDbProxyObject
 90
      499
 91
      501
 93
      444
310
42D31A5B995C185D1D195C9B90E409028333333333333E33F0000000000000F9010790141107004050750841D405064090741402483A0350
1001
ACAD
1000
AcDbSavedByObjectVersion
1070
     0
  0
ACAD_PROXY_OBJECT
  5
3C
102
{ACAD_REACTORS
330
2A
102
}
330
2A
100
AcDbProxyObject
 90
      499
 91
      501
 93
      444
310
42D3DD995C9A185B99D3D999915409028333333333333E33F0000000000000F9010790141107004050150941D405064090741402480A0350
1001
ACAD
1000
AcDbSavedByObjectVersion
1070
     0
  0
ACAD_PROXY_OBJECT
  5
33
102
{ACAD_REACTORS
330
2A
102
}
330
2A
100
AcDbProxyObject
 90
      499
 91
      501
 93
      428
310
425499585B1A5CDD1A58D08409038333333333333E33F0000000000000F9010740A907004050150800405405064090740C02480A1B40
1001
ACAD
1000
AcDbSavedByObjectVersion
1070
     0
  0
ACAD_PROXY_OBJECT
  5
42
102
{ACAD_REACTORS
330
2A
102
}
330
2A
100
AcDbProxyObject
 90
      499
 91
      501
 93
      420
310
4194DA1859195911B40902404333333333333E33F0000000000000F9010740A41107004050150800405405064090840C02480A0B40
1001
ACAD
1000
AcDbSavedByObjectVersion
1070
     0
  0
ACAD_PROXY_OBJECT
  5
41
102
{ACAD_REACTORS
330
2A
102
}
330
2A
100
AcDbProxyObject
 90
      499
 91
      501
 93
      516
310
4454DA18591959081DDA5D1A08195919D95CD1A40902404333333333333E33F0000000000000F901074090142907004050250800405405064090740C02480A0B40
1001
ACAD
1000
AcDbSavedByObjectVersion
1070
     0
  0
ACAD_PROXY_OBJECT
  5
3E
102
{ACAD_REACTORS
330
2A
102
}
330
2A
100
AcDbProxyObject
 90
      499
 91
      501
 93
      532
310
4394DA1859195CC81BD98811DC985E5174090240C333333333333E33F0000000000000F901079024090741D01000000000000111010841D405064090740C02480A0340
1001
ACAD
1000
AcDbSavedByObjectVersion
1070
     0
  0
ACAD_PROXY_OBJECT
  5
3F
102
{ACAD_REACTORS
330
2A
102
}
330
2A
100
AcDbProxyObject
 90
      499
 91
      501
 93
      476
310
41D4DAD95D18DA1E51840502408333333333333E33F0000000000000F901079024090741D01000000000000111010B41D405064090741802480A0340
1001
ACAD
1000
AcDbSavedByObjectVersion
1070
     0
  0
ACAD_PROXY_OBJECT
  5
37
102
{ACAD_REACTORS
330
2A
102
}
330
2A
100
AcDbProxyObject
 90
      499
 91
      501
 93
      412
310
41D51A1A58DAD95B90D409028333333333333E33F0000000000000F9010790141107004050150C41D405064090741402480A0350
1001
ACAD
1000
AcDbSavedByObjectVersion
1070
     0
  0
ACAD_PROXY_OBJECT
  5
30
102
{ACAD_REACTORS
330
2A
102
}
330
2A
100
AcDbProxyObject
 90
      499
 91
      501
 93
      420
310
4255DA5C99599C985B595059028333333333333E33F0000000000000F90107901411070040501600405405064090740C02480A0340
1001
ACAD
1000
AcDbSavedByObjectVersion
1070
     0
  0
ACAD_PROXY_OBJECT
  5
40
102
{ACAD_REACTORS
330
2A
102
}
330
2A
100
AcDbProxyObject
 90
      499
 91
      501
 93
      404
310
41560B54985E51940902404000000000000E03F0000000000000F9010740501907004050150841D405064090740C02480A1B40
1001
ACAD
1000
AcDbSavedByObjectVersion
1070
     0
  0
XRECORD
  5
2EC
102
{ACAD_REACTORS
330
2E2
102
}
330
2E2
100
AcDbXrecord
340
0
  0
XRECORD
  5
2EB
102
{ACAD_REACTORS
330
2E2
102
}
330
2E2
100
AcDbXrecord
 90
        0
  0
XRECORD
  5
302
102
{ACAD_REACTORS
330
2E2
102
}
330
2E2
100
AcDbXrecord
1000
DSTYLE
1002
{
1070
   340
340
11
1002
}
  0
XRECORD
  5
2ED
102
{ACAD_REACTORS
330
2E2
102
}
330
2E2
100
AcDbXrecord
  1
{F27666EF-0057-4ACB-9594-4C1DA327DF57}
  0
XRECORD
  5
2E5
102
{ACAD_REACTORS
330
2E2
102
}
330
2E2
100
AcDbXrecord
  1

  0
XRECORD
  5
2EA
102
{ACAD_REACTORS
330
2E2
102
}
330
2E2
100
AcDbXrecord
 90
        1
  0
XRECORD
  5
2E7
102
{ACAD_REACTORS
330
2E2
102
}
330
2E2
100
AcDbXrecord
340
1A
  0
XRECORD
  5
2E9
102
{ACAD_REACTORS
330
2E2
102
}
330
2E2
100
AcDbXrecord
 90
    10781
  0
XRECORD
  5
2E8
102
{ACAD_REACTORS
330
2E2
102
}
330
2E2
100
AcDbXrecord
340
19
  0
XRECORD
  5
2EF
102
{ACAD_REACTORS
330
2E2
102
}
330
2E2
100
AcDbXrecord
 40
0.0
  0
XRECORD
  5
2F2
102
{ACAD_REACTORS
330
2E2
102
}
330
2E2
100
AcDbXrecord
340
0
  0
XRECORD
  5
2F8
102
{ACAD_REACTORS
330
2E2
102
}
330
2E2
100
AcDbXrecord
 10
0.0
 20
0.0
 30
0.0
  0
XRECORD
  5
2F4
102
{ACAD_REACTORS
330
2E2
102
}
330
2E2
100
AcDbXrecord
 10
0.0
 20
0.0
 30
0.0
  0
XRECORD
  5
2F7
102
{ACAD_REACTORS
330
2E2
102
}
330
2E2
100
AcDbXrecord
 10
0.0
 20
0.0
 30
0.0
  0
XRECORD
  5
2F5
102
{ACAD_REACTORS
330
2E2
102
}
330
2E2
100
AcDbXrecord
 10
0.0
 20
0.0
 30
0.0
  0
XRECORD
  5
2F6
102
{ACAD_REACTORS
330
2E2
102
}
330
2E2
100
AcDbXrecord
 10
0.0
 20
0.0
 30
0.0
  0
XRECORD
  5
2F3
102
{ACAD_REACTORS
330
2E2
102
}
330
2E2
100
AcDbXrecord
 10
0.0
 20
0.0
 30
0.0
  0
XRECORD
  5
2F0
102
{ACAD_REACTORS
330
2E2
102
}
330
2E2
100
AcDbXrecord
340
0
  0
XRECORD
  5
2F1
102
{ACAD_REACTORS
330
2E2
102
}
330
2E2
100
AcDbXrecord
 70
     0
  0
XRECORD
  5
2E6
102
{ACAD_REACTORS
330
2E2
102
}
330
2E2
100
AcDbXrecord
  1

  0
XRECORD
  5
2E3
102
{ACAD_REACTORS
330
2E2
102
}
330
2E2
100
AcDbXrecord
 90
        1
  0
XRECORD
  5
2E4
102
{ACAD_REACTORS
330
2E2
102
}
330
2E2
100
AcDbXrecord
 90
       70
  0
XRECORD
  5
2FB
102
{ACAD_REACTORS
330
2E2
102
}
330
2E2
100
AcDbXrecord
340
0
  0
XRECORD
  5
301
102
{ACAD_REACTORS
330
2E2
102
}
330
2E2
100
AcDbXrecord
 10
0.0
 20
0.0
 30
0.0
  0
XRECORD
  5
2FD
102
{ACAD_REACTORS
330
2E2
102
}
330
2E2
100
AcDbXrecord
 10
0.0
 20
0.0
 30
0.0
  0
XRECORD
  5
300
102
{ACAD_REACTORS
330
2E2
102
}
330
2E2
100
AcDbXrecord
 10
0.0
 20
0.0
 30
0.0
  0
XRECORD
  5
2FE
102
{ACAD_REACTORS
330
2E2
102
}
330
2E2
100
AcDbXrecord
 10
0.0
 20
0.0
 30
0.0
  0
XRECORD
  5
2FF
102
{ACAD_REACTORS
330
2E2
102
}
330
2E2
100
AcDbXrecord
 10
0.0
 20
0.0
 30
0.0
  0
XRECORD
  5
2FC
102
{ACAD_REACTORS
330
2E2
102
}
330
2E2
100
AcDbXrecord
 10
0.0
 20
0.0
 30
0.0
  0
XRECORD
  5
2F9
102
{ACAD_REACTORS
330
2E2
102
}
330
2E2
100
AcDbXrecord
340
0
  0
XRECORD
  5
2FA
102
{ACAD_REACTORS
330
2E2
102
}
330
2E2
100
AcDbXrecord
 70
     0
  0
XRECORD
  5
2EE
102
{ACAD_REACTORS
330
2E2
102
}
330
2E2
100
AcDbXrecord
  1
{FAEB1C32-E019-11D5-929B-00C0DF256EC4}
  0
DICTIONARYVAR
  5
30C
102
{ACAD_REACTORS
330
303
102
}
330
303
100
DictionaryVariables
280
     0
  1
1:1
  0
DICTIONARYVAR
  5
305
102
{ACAD_REACTORS
330
303
102
}
330
303
100
DictionaryVariables
280
     0
  1
Standard
  0
DICTIONARYVAR
  5
304
102
{ACAD_REACTORS
330
303
102
}
330
303
100
DictionaryVariables
280
     0
  1
Standard
  0
DICTIONARYVAR
  5
308
102
{ACAD_REACTORS
330
303
102
}
330
303
100
DictionaryVariables
280
     0
  1
2
  0
DICTIONARYVAR
  5
309
102
{ACAD_REACTORS
330
303
102
}
330
303
100
DictionaryVariables
280
     0
  1
1
  0
DICTIONARYVAR
  5
30D
102
{ACAD_REACTORS
330
303
102
}
330
303
100
DictionaryVariables
280
     0
  1
1
  0
DICTIONARY
  5
310
330
45
100
AcDbDictionary
280
     1
  3
ACAD_XREC_ROUNDTRIP
360
311
  0
DICTIONARY
  5
30E
330
44
100
AcDbDictionary
280
     1
  3
ACAD_XREC_ROUNDTRIP
360
30F
  0
DICTIONARY
  5
312
330
46
100
AcDbDictionary
280
     1
  3
ACAD_XREC_ROUNDTRIP
360
313
  0
XRECORD
  5
311
102
{ACAD_REACTORS
330
310
102
}
330
310
100
AcDbXrecord
102
MATERIAL
148
0.0
149
0.0
149
0.0
 93
        0
 94
      127
282
     0
 72
     1
 77
     1
171
     1
175
     1
179
     1
273
     0
  0
XRECORD
  5
30F
102
{ACAD_REACTORS
330
30E
102
}
330
30E
100
AcDbXrecord
102
MATERIAL
148
0.0
149
0.0
149
0.0
 93
        0
 94
      127
282
     0
 72
     1
 77
     1
171
     1
175
     1
179
     1
273
     0
  0
XRECORD
  5
313
102
{ACAD_REACTORS
330
312
102
}
330
312
100
AcDbXrecord
102
MATERIAL
148
0.0
149
0.0
149
0.0
 93
        0
 94
      127
282
     0
 72
     1
 77
     1
171
     1
175
     1
179
     1
273
     0
  0
ENDSEC
  0
EOF
